» » »

Low Rider Bass tabs (ver.1)

Artists:  A B C D E F G H I J K L M N O P Q R S T U V W X Y Z # 

Low Rider Bass tabs (ver.1)

War
Rating:
5/5 (22 votes)

Hard to play? Try these video lessons and learn fast.
                Low Rider by War

Main and possibly only riff
G:------------------------------|
D:-------------3---3h5-3h5------|
A:-------1-3-5---5--------------|
E:--1-3-------------------------|

G:-----------------------------|
D:-------------3---3h5-3h5-----|
A:-------1-3-5---5-------------|
E:--1-3------------------------|

G:-----------------------------|
D:-------------3---3h5-3h5-----|
A:-------1-3-5---5-------------|
E:--1-3------------------------|

G:-----------------------------|
D:-------------3---3h5-3h5-----|
A:-------1-3-5---5-------------|
E:--1-3------------------------|

G:-----------------------------|
D:-------------3---3h5-3h5-----|
A:-------1-3-5---5-------------|
E:--1-3------------------------|
            
Hard to play? Try these video lessons and learn fast. | Correct




comments powered by Disqus
↑ Back to top | Tablatures and chords are parodies/interpretations of the original songs. You may use it for private study, scholarship, research or language learning purposes only