» » »

Wannadies, Shorty Tabs (ver.1)

Artists:  A B C D E F G H I J K L M N O P Q R S T U V W X Y Z # 

Shorty Tabs (ver.1)

Wannadies Tabs
 Rating:
4.2/5 (5 votes)
Shorty lessons Tabs too difficult? Try these video lessons and learn fast
1
                
Intro:
    Oh god, how fun to be the one, I'm so sad to say
    You're nice and all, but you're too tall, Have to go now

   e--------------------------------------------|
   b--------------------------------------------|
   g--------------------------------------------|
   D-5-5-5--3-3-3-3--5-5-5-5--7-7-7-7--2-2-2-2--|
   A-5-5-5--3-3-3-3--5-5-5-5--7-7-7-7--2-2-2-2--|
   E-3-3-3--1-1-1-1--3-3-3-3--5-5-5-5--0-0-0-0--|
It always happens to me, always (always)
   e----------------------------------------------|
   b----------------------------------------------|
   g----------------------------------------------|
   D-3-3-3-3--5-5-5-5--7-7-7-7--2-2-2-2--3-3-3-3--|
   A-3-3-3-3--5-5-5-5--7-7-7-7--2-2-2-2--3-3-3-3--|
   E-1-1-1-1--3-3-3-3--5-7-7-7--0-0-0-0--1-1-1-1--|
They Feel attracted to me, shorty (Always)
   e----------------------------|
   b----------------------------|
   g----------------------------|
   D-2-2-2-2--7-7-7-7--5-5-5-5--|
   A-2-2-2-2--7-7-7-7--5-5-5-5--|
   E-0-0-0-0--5-5-5-5--3-3-3-3--|
Always (always) they say (always, always, all)
   e-------------------------------------|
   b-------------------------------------|
   g-5-5-5-5--------------------5-5-5-5--|
   D-5-5-5-5--5-5-5-5--3-3-3-3--5-5-5-5--|
   A-3-3-3-3--5-5-5-5--3-3-3-3--3-5-5-5--|
   E----------3-3-3-3--1-1-1-1-----------|
If you go, I'll go with you
   e-------------------------------------|
   b-------------------------------------|
   g-5-5-5-5--------------------5-5-5-5--|
   D-5-5-5-5--5-5-5-5--3-3-3-3--5-5-5-5--|
   A-3-3-3-3--5-5-5-5--3-3-3-3--3-5-5-5--|
   E----------3-3-3-3--1-1-1-1-----------|
If you stay, I'll wait
   e------------------------------------------------------|
   b------------------------------------------------------|
   g-5-5-5-5--------------------5-5-5-5-------------------|
   D-5-5-5-5--5-5-5-5--3-3-3-3--5-5-5-5--2-2-2-2-2-2-2-1--|
   A-3-3-3-3--5-5-5-5--3-3-3-3--3-5-5-5--2-2-2-2-2-2-2-1--|
   E----------3-3-3-3--1-1-1-1-----------0-0-0-0-0-0-0-3--|
If you don't know, I consider this a date


Just bass:

   I stayed and she waited for me, no chance to get away

   I tried to think, another drink might help me

   e--------------------------------------------|
   b--------------------------------------------|
   g--------------------------------------------|
   D-5-5-5--3-3-3-3--5-5-5-5--7-7-7-7--2-2-2-2--|
   A-5-5-5--3-3-3-3--5-5-5-5--7-7-7-7--2-2-2-2--|
   E-3-3-3--1-1-1-1--3-3-3-3--5-5-5-5--0-0-0-0--|
It always happens to me, always (always)
   e----------------------------------------------|
   b----------------------------------------------|
   g----------------------------------------------|
   D-3-3-3-3--5-5-5-5--7-7-7-7--2-2-2-2--3-3-3-3--|
   A-3-3-3-3--5-5-5-5--7-7-7-7--2-2-2-2--3-3-3-3--|
   E-1-1-1-1--3-3-3-3--5-7-7-7--0-0-0-0--1-1-1-1--|
They Feel attracted to me, shorty (Always)
   e----------------------------|
   b----------------------------|
   g----------------------------|
   D-2-2-2-2--7-7-7-7--5-5-5-5--|
   A-2-2-2-2--7-7-7-7--5-5-5-5--|
   E-0-0-0-0--5-5-5-5--3-3-3-3--|
Always (always) they say (always, always, all)
   e-------------------------------------|
   b-------------------------------------|
   g-5-5-5-5--------------------5-5-5-5--|
   D-5-5-5-5--5-5-5-5--3-3-3-3--5-5-5-5--|
   A-3-3-3-3--5-5-5-5--3-3-3-3--3-5-5-5--|
   E----------3-3-3-3--1-1-1-1-----------|
If you go, I'll go with you
   e-------------------------------------|
   b-------------------------------------|
   g-5-5-5-5--------------------5-5-5-5--|
   D-5-5-5-5--5-5-5-5--3-3-3-3--5-5-5-5--|
   A-3-3-3-3--5-5-5-5--3-3-3-3--3-5-5-5--|
   E----------3-3-3-3--1-1-1-1-----------|
If you stay, I'll wait
   e------------------------------------------------------|
   b------------------------------------------------------|
   g-5-5-5-5--------------------5-5-5-5-------------------|
   D-5-5-5-5--5-5-5-5--3-3-3-3--5-5-5-5--2-2-2-2-2-2-2-1--|
   A-3-3-3-3--5-5-5-5--3-3-3-3--3-5-5-5--2-2-2-2-2-2-2-1--|
   E----------3-3-3-3--1-1-1-1-----------0-0-0-0-0-0-0-3--|
If you don't know, I consider this a date

   Chorus

   e-----------------------------------------------
   b-------------------------0---1-----------------
   g------------------0---2------------------------
   D------0---2---3--------------------------------1
   A--1--------------------------------------------
   E-----------------------------------------------

   Just Bass:

      Stuck in the bar, I couldn't get far, she was still there smiling

      "It's not me being tall, it's you - you're small", "I like that"

   e--------------------------------------------|
   b--------------------------------------------|
   g--------------------------------------------|
   D-5-5-5--3-3-3-3--5-5-5-5--7-7-7-7--2-2-2-2--|
   A-5-5-5--3-3-3-3--5-5-5-5--7-7-7-7--2-2-2-2--|
   E-3-3-3--1-1-1-1--3-3-3-3--5-5-5-5--0-0-0-0--|
It always happens to me, always (always)
   e----------------------------------------------|
   b----------------------------------------------|
   g----------------------------------------------|
   D-3-3-3-3--5-5-5-5--7-7-7-7--2-2-2-2--3-3-3-3--|
   A-3-3-3-3--5-5-5-5--7-7-7-7--2-2-2-2--3-3-3-3--|
   E-1-1-1-1--3-3-3-3--5-7-7-7--0-0-0-0--1-1-1-1--|
They Feel attracted to me, shorty (Always)
   e----------------------------|
   b----------------------------|
   g----------------------------|
   D-2-2-2-2--7-7-7-7--5-5-5-5--|
   A-2-2-2-2--7-7-7-7--5-5-5-5--|
   E-0-0-0-0--5-5-5-5--3-3-3-3--|
Always (always) they say (always, always, all)
   e-------------------------------------|
   b-------------------------------------|
   g-5-5-5-5--------------------5-5-5-5--|
   D-5-5-5-5--5-5-5-5--3-3-3-3--5-5-5-5--|
   A-3-3-3-3--5-5-5-5--3-3-3-3--3-5-5-5--|
   E----------3-3-3-3--1-1-1-1-----------|
If you go, I'll go with you
   e-------------------------------------|
   b-------------------------------------|
   g-5-5-5-5--------------------5-5-5-5--|
   D-5-5-5-5--5-5-5-5--3-3-3-3--5-5-5-5--|
   A-3-3-3-3--5-5-5-5--3-3-3-3--3-5-5-5--|
   E----------3-3-3-3--1-1-1-1-----------|
If you stay, I'll wait
   e------------------------------------------------------|
   b------------------------------------------------------|
   g-5-5-5-5--------------------5-5-5-5-------------------|
   D-5-5-5-5--5-5-5-5--3-3-3-3--5-5-5-5--2-2-2-2-2-2-2-1--|
   A-3-3-3-3--5-5-5-5--3-3-3-3--3-5-5-5--2-2-2-2-2-2-2-1--|
   E----------3-3-3-3--1-1-1-1-----------0-0-0-0-0-0-0-3--|
If you don't know, I consider this a date

This a date...


   Chorus

   e-----------------------------------------------
   b-------------------------0---1-----------------
   g------------------0---2------------------------
   D------0---2---3--------------------------------
   A--1--------------------------------------------
   E-----------------------------------------------
            
Submit corrections

comments powered by Disqus
↑ Back to top | Wannadies Tabs for Shorty. Lyrics for acoustic guitar and electric guitar. 1 Tablatures and chords are parodies/interpretations of the original songs. You may use it for private study, scholarship, research or language learning purposes only