» » »

I Love You Love Me Tabs (ver.1)

Artists:  A B C D E F G H I J K L M N O P Q R S T U V W X Y Z # 

I Love You Love Me Tabs (ver.1)

Wannadies
Rating:
0/5 (0 votes)

Hard to play? Try these video lessons and learn fast.
                
Intro-play once (complete)
e---3---3----2---2----0---0----2—-2^3—---3—--3---3—--3----3---3---2—-2^3^2--|
B---3--3-----3--3-----3--3-----3--3------3--3----3—-3-----3--3----3---------|
G---------------------------------------------------------------------------|
D----------------------------0----------------------------------0-----------|
A---------------------------------------3------2--------0-------------------|
E-3--------2--------0-------------------------------------------------------|

Verse #1 (play twice, then chorus)
e---3---3----2---2----0---0—--0---2------3---3----2---2----0---0-—-0---2----|
B---3--3-----3--3-----3--3----3---3------3--3-----3--3-----3--3----3---3----|
G---------------------------------------------------------------------------|
D---------------------------------------------------------------------------|
A-----------------------------3---2--------------------------------3---2----|
E-3--------2--------0-----------------3---------2--------0------------------|
If I could find a way I would Tell you Everything I’d like too    Tell you

e---3---3----2---2----0---0----2—-2^3—---3—--3---3—--3----3---3---2—-2^3^2--|
B---3--3-----3--3-----3--3-----3--3------3--3----3—-3-----3--3----3---------|
G---------------------------------------------------------------------------|
D----------0-----------------0-----------------2----------------0-----------|
A--------------------------------------3-----------------2------------------|
E--3-----------------0------------------------------------------------------|
I would do everything you want to do, Play every silly game that you’d like to

e---3---3----2---2----0---0—--0---2------3---3----2---2----0---0-—-0---2----|
B---3--3-----3--3-----3--3----3---3------3--3-----3--3-----3--3----3---3----|
G---------------------------------------------------------------------------|
D---------------------------------------------------------------------------|
A-----------------------------3---2--------------------------------3---2----|
E-3--------2--------0-----------------3---------2--------0------------------|
If I could find a way I would Hold You The same way a loving mother            would hold you

e---3---3----2---2----0---0----2—-2^3—---3—--3---3—--3----3---3---2—-2^3^2--|
B---3--3-----3--3-----3--3-----3--3------3--3----3—-3-----3--3----3---------|
G---------------------------------------------------------------------------|
D----------0-----------------0-----------------2----------------0-----------|
A--------------------------------------3----------------2-------------------|
E--3-----------------0------------------------------------------------------|
I could bring you to your knees   Hurt you bad and ask you   How it feels

Chorus
e----3---3----2---2----1---1----0---2^3--3---3----2---2----1---1----0---2^3-|
B----3--3-----3—-3-----3--3-----3--3-----3--3-----3—3------3--3-----3--3----|
G---------------------------------------------------------------------------|
D---------------------------------------------------------------------------|
A---------------------------------------------------------------------------|
E--3--------2--------1--------0--------3--------2--------1--------0---------|
I say Words never come when I want them to      Things never happen 

e----0---0----0---0----2---2----2---2^3-------------------------------------|
B----3--3-----3--3-----3--3-----3--3----------------------------------------|
G---------------------------------------------------------------------------|
D-----------------------------0---------------------------------------------|
A--2--------0--------3-------------------0----------------------------------|
E------------------------------------------3(=3 on next line)---------------|
The way     I    want                 them to

e---3---3----2---2----0---0----2—-2^3—---3—--3---3—--3----3---3---2—-2^3^2--|
B---3--3-----3--3-----3--3-----3--3------3--3----3—-3-----3--3----3---------|
G---------------------------------------------------------------------------|
D----------------------------0----------------------------------0-----------|
A---------------------------------------3------2--------0-------------------|
E-3--------2--------0-------------------------------------------------------|


e---3---3----2---2----0---0—--0---2------3---3----2---2----0---0-—-0---2----|
B---3--3-----3--3-----3--3----3---3------3--3-----3--3-----3--3----3---3----|
G---------------------------------------------------------------------------|
D---------------------------------------------------------------------------|
A-----------------------------3---2--------------------------------3---2----|
E-3--------2--------0-----------------3---------2--------0------------------|
And if I hurt you really bad I would Let you know that I feel sad then I could

e---3---3----2---2----0---0----2—-2^3—---3—--3---3—--3----3---3---2—-2^3^2--|
B---3--3-----3--3-----3--3-----3--3------3--3----3—-3-----3--3----3---------|
G---------------------------------------------------------------------------|
D----------0-----------------0-----------------2----------------0-----------|
A--------------------------------------3-----------------2------------------|
E--3-----------------0------------------------------------------------------|
 Smash your face in with a stone,         have a good laugh when you’re gone
Chorus
e----3---3----2---2----1---1----0---2^3--3---3----2---2----1---1----0---2---|
B----3--3-----3—-3-----3--3-----3--3-----3--3-----3—3------3--3-----3--3----|
G---------------------------------------------------------------------------|
D---------------------------------------------------------------------------|
A---------------------------------------------------------------------------|
E--3--------2--------1--------0--------3--------2--------1--------0---------|
I say Words never come when I want them to      Things never happen 

e----0---0----0---0----2---2----2---2^3-------------------------------------|
B----3--3-----3--3-----3--3-----3--3--------------------(there’s a little)--|
G-------------------------------------------------------(ending thing here)-|
D-----------------------------0-------------------------(that I don’t know)-|
A--2--------0--------3-------------------0----------------------------------|
E------------------------------------------3--------------------------------|
The way     I       want              them to

e---3---3----2---2----0---0----2—-2^3—---3—--3---3—--3----3---3---2—-2^3^2--|
B---3--3-----3--3-----3--3-----3--3------3--3----3—-3-----3--3----3---------|
G---------------------------------------------------------------------------|
D----------------------------0----------------------------------0-----------|
A---------------------------------------3------2--------0-------------------|
E-3--------2--------0-------------------------------------------------------| I love you I love you I love you I promise you I do I love you  I love you  I promise you I do


Repeat 2x
e---3---3----2---2----0---0----2—-2^3—---3—--3---3—--3----3---3---2—-2^3^2--|
B---3--3-----3--3-----3--3-----3--3------3--3----3—-3-----3--3----3---------|
G---------------------------------------------------------------------------|
D----------------------------0----------------------------------0-----------|
A---------------------------------------3------2--------0-------------------|
E-3--------2--------0-------------------------------------------------------|
I love you   I love you   I promise you I do I love you   I love you  I promise you I do



^ = Hammer/pluck – use each appropriately
            
Hard to play? Try these video lessons and learn fast. | Correct




comments powered by Disqus
↑ Back to top | Tablatures and chords are parodies/interpretations of the original songs. You may use it for private study, scholarship, research or language learning purposes only