» » »

Turn To Stone Tabs (ver.1)

Artists:  A B C D E F G H I J K L M N O P Q R S T U V W X Y Z # 

Turn To Stone Tabs (ver.1)

Walsh Joe
Rating:
0/5 (0 votes)

Tabs too difficult? Try these video lessons and learn fast.
                PROPS GO TO: Joey

Here is the basic tab to Joe Walsh's Turn to Stone minus the heavy lead parts.

Guitar 1 2 4 = EADGBe

Guitar 1 (distortion)

--7-7---5-5---3---3-3---5-5---7---7-7---5-5-5-5--3-3---3-3---5-5----------------
--7-7---5-5---3---3-3---5-5---7---7-7---5-5-5-5--3-3---3-3---5-5----------------
--5-5---3-3---1---1-1---3-3---5---5-5---3-3-3-3--1-1---1-1---3-3---5------------

Verse Guitar 1 (distortion)

------------------------------------
------------------------------------
-------------3-3-3------------------      x2
--3-3-3-3-3--3-3-3------------------
--3-3-3-3-3--1-1-1------------------
--1-1-1-1-1-------------------------

Guitar 2 (distortion)plays at the same time as Guitar 3 

----------------------------------------------
----------------------------------------------
---5/7-7-5/7--5/7-7--5/0----------------------
---5/7-7-5/7--5/7-7--5/0----------------------
---3/5-5-3/5--3/5-5--3/0----------------------
----------------------------------------------

Guitar 3 (distortion w/slide) DADGBe

-----------------------------------------------------
-----------------------------------------------------
--------5/7-7-5-5h7--------5/7-5/7--5/0--------------
-----------------------------------------------------
-----------------------------------------------------
--0-----------------0-0-0----------------------------

Guitar 1 and 2

---------------------------------------------------
---------------------------------------------------
---------------------------------------------------
--3-3-3-3--5-5-5-5---------------------------------
--3-3-3-3--5-5-5-5---------------------------------
--1-1-1-1--3-3-3-3---------------------------------

Guitar 4 (clean reverb)

---------------5--------5--------------------------
-------6-5----6-5----6-5--5/6----------------------
------7------7------7------------------------------
-----7------7------7-------------------------------
----5------5------5--------------------------------
---------------------------------------------------

Those are the major parts of the song. Have fun enjoy and enjoy 
                                                  -Joey
            
Tabs too difficult? Try these video lessons and learn fast.




comments powered by Disqus
↑ Back to top | Tablatures and chords are parodies/interpretations of the original songs. You may use it for private study, scholarship, research or language learning purposes only