» » »

Walsh Joe, All Nite Laundry Mat Blues Tabs (ver.1)

Artists:  A B C D E F G H I J K L M N O P Q R S T U V W X Y Z # 

All Nite Laundry Mat Blues Tabs (ver.1)

Walsh Joe Tabs
 Rating:
4/5 (4 votes)
All Nite Laundry Mat Blues lessons Tabs too difficult? Try these video lessons and learn fast
1
                Joe Walsh
All-Night Laundry-Mat Blues 
So What, 1974 MCA records

It might not be perfect, but it's a pretty nice start. 
The intro is finger-picked, the verse is strummed.  
The * represents a stacatto dot--play short, pointed chords there!


      C                         G   Am  G   C
e-------------------------------------------0-------------------------
B-----1-------------------------0---1---3-----------------------------
G-----------0-----0-----0--------------------------0-----0-----0------
D--------2-----------2--------------------------2-----------2---------
A-----3--------3-----------3--------0---2---3---------3------------3--
E-------------------------------3-------------------------------------

_________________________________________________________
 (1)                 |(2) C   G   |(3) C                 |
e--------------------|------------|----------------------|
B--------------------|------------|----1-----------------|
G-------0------------|----0---0---|----0-----------------|
D--0h2-----2p0-------|----2---0---|----2-----------------|
A---------------3p0--|----3---2---|----3-----------------|
E--------------------|----3---3---|----3-----------------|
                          *   *        *      (...snork!)



    C                              G  F# F
Got the All-Nite Laundrymat Blues 
C                                       (fill)
Washin' everything all 'cept my shoes,  e---------------
				        B---5---4---3---
					G---------------
 					D---------------
					A---3---2---1---
					E---------------


  F7
I got ring-around-the-collar and it smells like sweat,
  G7
A dollar in the dryer and it ain't dry yet!
 C                                       G  F#  F
If ya wear clothes, ya gotta pay the dues
         C         G           C      G
With the All-Night Laundry-Mat Blues (yes ya do)
C             G           C    G  C
The all-night laundry-mat blue~oo~ooos!
            
Submit corrections

comments powered by Disqus
↑ Back to top | Walsh Joe Tabs for All Nite Laundry Mat Blues. Lyrics for acoustic guitar and electric guitar. 1 Tablatures and chords are parodies/interpretations of the original songs. You may use it for private study, scholarship, research or language learning purposes only