» » »

Stupid Day Job Tabs (ver.1)

Artists:  A B C D E F G H I J K L M N O P Q R S T U V W X Y Z # 

Stupid Day Job Tabs (ver.1)

Wally Pleasant
Rating:
0/5 (0 votes)

Hard to play? Try these video lessons and learn fast.
                  

Guitar Tabs by: Wally Pleasant 
Tabs for song: Stupid Day Job 



Wally Pleasant - Stupid Day Job
G     D     Em    C   
_____________________    
3     2     0     0    
3     3     0     1    
0     2     0     0    
0     0     2     2    
2     X     2     3    
3     X     0     X

Intro / Verse
E-----3--3-3-3-2-2-2-2-2-2-2-----0--0-0-0-0-0-0-0-0-0-0--|
B-----3--3-3-3-3-3-3-3-3-3-3-----0--0-0-0-1-1-1-1-1-1-1--|
G-----0--0-0-0-2-2-2-2-2-2-2-----0--0-0-0-0-0-0-0-0-0-0--|
D-----0--0-0-0-0-0-0-0-0-0-0-----2--2-2-2-2-2-2-2-2-2-2--|
A-----2--2-2-2-------------------2--2-2-2-3-3-3-3-3-3-3--|
E--3--3--3-3-2----------------0--0--0-0-0----------------|

Now its after lunch ...
E-3-3-3-3-3-3-3--2-2-2-2-2-2-2--0-0-0-0-0-0-0--0-0-0-0-0-0-0--|
B-3-3-3-3-3-3-3--3-3-3-3-3-3-3--0-0-0-0-0-0-0--1-1-1-1-1-1-1--|
G-0-0-0-0-0-0-0--2-2-2-2-2-2-2--0-0-0-0-0-0-0--0-0-0-0-0-0-0--|
D-0-0-0-0-0-0-0--0-0-0-0-0-0-0--2-2-2-2-2-2-2--2-2-2-2-2-2-2--|
A-2-2-2-2-2-2-2-----------------2-2-2-2-2-2-2--3-3-3-3-3-3-3--|
E-3-3-3-3-3-3-3-----------------0-0-0-0-0-0-0-----------------|   
|---| |---|    |---| |---|    |---| |---|    |---| |---|    
P.M.  P.M.     P.M.  P.M.     P.M.  P.M.     P.M.  P.M.
 
            
Hard to play? Try these video lessons and learn fast. | Correct




comments powered by Disqus
↑ Back to top | Tablatures and chords are parodies/interpretations of the original songs. You may use it for private study, scholarship, research or language learning purposes only