» » »

Cool Guy With A Car Tabs (ver.1)

Artists:  A B C D E F G H I J K L M N O P Q R S T U V W X Y Z # 

Cool Guy With A Car Tabs (ver.1)

Wally Pleasant
Rating:
0/5 (0 votes)

Hard to play? Try these video lessons and learn fast.
                
E----------------------|
B--2--2-2--------------|
G--2--2-2--2-0-2-0-----|
D--2--2-2--2-0-2-0-----|
A--------------0-------|
E----------------------|
E----------------------|
B----------------------|
G----------------------|
D-2-4-5-0-2-2-4-5-0----| X2
A-0-0-0-0-0-0-0-0-0----|
E----------------------|
Verse (These 3 riffs are played throughout the entire song)Its pretty simple to figure out where they go
E---------|---------|----------|
B---------|---------|----------|
G---------|-2-4-5-0-|----------|
D-2-4-5-0-|-0-0-0-0-|----------|
A-0-0-0-0-|---------|-2-4-5-0--|
E---------|---------|-0-0-0-0--|
Between the verses Wally plays an A chordAfter Wally says Start 'er up
E--------------------------------------------------------|
B----------------------------2-4-5-0-2/7 7-7-7-5-5-4-4---|
G----------------------------0-0-0-0-0~~-0-0-0-0-0-0-0---|
D--2-4-5-0-2/7 7-7-7-5-5-4-4-----------------------------|
A--0-0-0-0-0~~-0-0-0-0-0-0-0-----------------------------|
E--------------------------------------------------------|
E--------------------------------------------------------|
B--------------------------------------------------------|
G--------------------------------------------------------|
D--------------------------------------------------------|
A--2-4-5-0-2/7 7-7-7-5-5-4-4-----------------------------|
E--0-0-0-0-0~~-0-0-0-0-0-0-0-----------------------------|
After Wally says OH NO! It looks like I'm gonna crash
E-----------------------------|
B-----------------------------|
G--9-9-9-9-9-9-9-7-5-4-----2--|
D--9-9-9-9-9-9-9-7-5-4- X3-2--|
A--------------------------0--|
E-----------------------------|
            
Hard to play? Try these video lessons and learn fast. | Correct




comments powered by Disqus
↑ Back to top | Tablatures and chords are parodies/interpretations of the original songs. You may use it for private study, scholarship, research or language learning purposes only