» » »

A Little Piece Of Me Tabs (ver.1)

Artists:  A B C D E F G H I J K L M N O P Q R S T U V W X Y Z # 

A Little Piece Of Me Tabs (ver.1)

Walls Of Jericho
Rating:
3/5 (2 votes)
Tabs too difficult? Try these video lessons and learn fast.
                Walls of Jericho - A little piece of me

I think this song is played by two guitars, but it doens´t make any 
difference, except in the beginning and during the "solo"...

x = mute

Dropped D-tuning

E|--------------------------------|
B|--------------------------------|
G|--------------------------------|
D|3-33--------------------------3-| 
A|1-13222-222-222-0-222-222-222-3-|
D|---3222-222-222-0-222-222-222-3-|
      xxx xxx xxx   xxx xxx xxx 


E|----------------------------|
B|----------------------------|
G|----------------------------|
D|---------------3--3-3-------| 
A|222-222-222-0--1--1-3-------|
D|222-222-222-0-0--0--3-------|
  xxx xxx xxx   x  x


E|----------------------------|
B|----------------------------|
G|----------------------------|
D|--------------------------3-| 
A|222-222-222-0-222-222-222-3-|
D|222-222-222-0-222-222-222-3-|
  xxx xxx xxx   xxx xxx xxx 


E|-----------------------------|
B|-----------------------------|
G|-----------------------------|
D|---------------3--3-3--3—-3-6| 
A|222-222-222-0--1--1-3--1--1-4|
D|222-222-222-0-0--0--3-0--0---|
  xxx xxx xxx   x  x    x  x


E|----------------------------|
B|----------------------------|
G|----------------------------|
D|--------------------------3-| 
A|222-222-222-0-222-222-222-3-|
D|222-222-222-0-222-222-222-3-|
  xxx xxx xxx   xxx xxx xxx 
  let's not sugar coat this


E|----------------------------|
B|----------------------------|
G|----------------------------|
D|---------------3--3-3-------| 
A|222-222-222-0--1--1-3-------|
D|222-222-222-0-0--0--3-------|
  xxx xxx xxx   x  x
  it's not that sweet


E|----------------------------|
B|----------------------------|
G|----------------------------|
D|--------------------------3-| 
A|222-222-222-0-222-222-222-3-|
D|222-222-222-0-222-222-222-3-|
  xxx xxx xxx   xxx xxx xxx 
  my mind restrains my lips


E|----------------------------|
B|----------------------------|
G|----------------------------|
D|---------------3--3-3-------| 
A|222-222-222-0--1--1-3-------|
D|222-222-222-0-0--0--3-------|
  xxx xxx xxx   x  x
  from speaking


E|----------------------------|
B|----------------------------|
G|----------------------------|
D|--------------------------3-| 
A|222-222-222-0-222-222-222-3-|
D|222-222-222-0-222-222-222-3-|
  xxx xxx xxx   xxx xxx xxx 
  those words       no one 


E|----------------------------|
B|----------------------------|
G|----------------------------|
D|---------------3--3-3-------| 
A|222-222-222-0--1--1-3-------|
D|222-222-222-0-0--0--3-------|
  xxx xxx xxx   x  x
          wants to hear


E|----------------------------|
B|----------------------------|
G|----------------------------|
D|--------------------------3-| 
A|222-222-222-0-222-222-222-3-|
D|222-222-222-0-222-222-222-3-|
  xxx xxx xxx   xxx xxx xxx 
  those words someone 


E|-----------------------------|
B|-----------------------------|
G|-----------------------------|
D|---------------3--3-3--3—-3-6| 
A|222-222-222-0--1--1-3--1--1-4|
D|222-222-222-0-0--0--3-0--0---|
  xxx xxx xxx   x  x    x  x
  has to say, it's time to kiss goodbye.


E|-----------------------------|
B|-----------------------------|
G|-----------------------------|  repeat 4 times
A|-----------------------------|
D|00-00--0-00-00-00-00---------|
A|00-00--0-00-00-00-00---------|
  xx xx  x xx xx xx xx
  i'm so close to ripping out my heart, 
  i'm so close to


E|---------------------------------|
B|---------------------------------|
G|---------------------------------| 
A|---------------------------------|
D|00-00--0-00-00-0-00-00-0-7--02320|
A|00-00--0-00-00-0-00-00-0-7--02320|
  xx xx  x xx xx x xx xx x
   throwing it in your face.


E|--------------------------------|
B|--------------------------------|
G|--------------------------------|
D|----------------------65--------|
A|000000300000030000003243--------|
D|0000003000000300000032----------|
  xxxxxx xxxxxx xxxxxx
  where would i be then? 
  no better off than i am now


E|--------------------------------|
B|--------------------------------|
G|--------------------------------|
D|--------------------------------|
A|0000003000000333333366-2222-----|
D|0000003000000333333366-2222-----|
  xxxxxx xxxxxx xxxxxx   xxxx
   alone, afraid, desensitized


E|--------------------------------|
B|--------------------------------|
G|--------------------------------|
D|----------------------65--------|
A|000000300000030000003243--------|
D|0000003000000300000032----------|
  xxxxxx xxxxxx xxxxxx
  this is not the first time and i'm sure its not the last


E|--------------------------------|
B|--------------------------------|
G|--------------------------------|
D|--------------------------------|
A|0000003000000333333366-2222-----|
D|0000003000000333333366-2222-----|
  xxxxxx xxxxxx xxxxxx   xxxx
		------>
  this is the one thing i am sure of, the one thing i know


E|--------------------------------|
B|--------------------------------|
G|--------------------------------|
D|-------------------33-3---------|
A|0-00-00-0-0-00-00-011-10-00-00-0|
D|0-00-00-0-0-00-00-0----0-00-00-0|
    xx xx x   xx xx x      xx xx x
  let me ask you a question, do you 


E|--------------------------------|
B|--------------------------------|
G|--------------------------------|
D|-------------------33-3---------|
A|0-00-00-0-0-00-00-011-10-00-00-0|
D|0-00-00-0-0-00-00-0----0-00-00-0|
    xx xx x   xx xx x      xx xx x
  know what's wrong with me, can you give me an answer?


E|--------------------------------|
B|--------------------------------|
G|--------------------------------|
D|-------------------33-3---------|
A|0-00-00-0-0-00-00-011-10-00-00-0|
D|0-00-00-0-0-00-00-0----0-00-00-0|
    xx xx x   xx xx x      xx xx x
  if not then leave me the f**k alone


E|--------------------------------|
B|--------------------------------|
G|--------------------------------|
D|-------------------33-3---------|
A|0-00-00-0-0-00-00-011-10-00-00-0|
D|0-00-00-0-0-00-00-0----0-00-00-0|
    xx xx x   xx xx x      xx xx x
  quit playing hero


E|--------------------------------|
B|--------------------------------|
G|--------------------------------|
D|--0h2-2h3-3h5551-5--------------|
A|0---------------03-06-2---------|
D|0---------------0--06-2---------|
                  x  x
  -> let sound    
  honestly these tears are not for you


E|--------------------------------|
B|--------11-9-9------------------|
G|---7h9p7--7-7-7h9p7-------------|
D|---------------------5----------|
A|0-------------------03-00-1-----|
D|0-------------------0--00-1-----|
            x  x      x  x
  -> let sound 
  these tears are for me   
 

E|--------------------------------|
B|--------------------------------|
G|--------------------------------|
D|--0h2-2h3-3h5551-5--------------|
A|0---------------03-06-2---------|
D|0---------------0--06-2---------|
                  x  x
  the me inside of me, 
  the one that no one has seen


E|--------------------------------|
B|--------11-9-9------------------|
G|---7h9p7--7-7-7h9p7-------------|
D|---------------------5----------|
A|0-------------------03-00000----|
D|0-------------------0--00000----|
            x  x      x  xxxxx
  -> let sound 
  the me i strive to be        Go!


E|----------------------------|
B|----------------------------|
G|----------------------------|
D|--------------------------3-| 
A|222-222-222-0-222-222-222-3-|
D|222-222-222-0-222-222-222-3-|
  xxx xxx xxx   xxx xxx xxx 


E|----------------------------|
B|----------------------------|
G|----------------------------|
D|---------------3--3-3-------| 
A|222-222-222-0--1--1-3-------|
D|222-222-222-0-0--0--3-------|
  xxx xxx xxx   x  x
		I´m so alone!


E|----------------------------|
B|----------------------------|
G|----------------------------|
D|--------------------------3-| 
A|222-222-222-0-222-222-222-3-|
D|222-222-222-0-222-222-222-3-|
  xxx xxx xxx   xxx xxx xxx 


E|----------------------------|
B|----------------------------|
G|----------------------------|
D|---------------3--3-3-------| 
A|222-222-222-0--1--1-3-------|
D|222-222-222-0-0--0--3-------|
  xxx xxx xxx   x  x
  now i'm afraid


E|----------------------------|
B|----------------------------|
G|----------------------------|
D|--------------------------3-| 
A|222-222-222-0-222-222-222-3-|
D|222-222-222-0-222-222-222-3-|
  xxx xxx xxx   xxx xxx xxx 


E|----------------------------|
B|----------------------------|
G|----------------------------|
D|---------------3--3-3-------| 
A|222-222-222-0--1--1-3-------|
D|222-222-222-0-0--0--3-------|
  xxx xxx xxx   x  x
  of becoming


E|----------------------------|
B|----------------------------|
G|----------------------------|
D|--------------------------3-| 
A|222-222-222-0-222-222-222-3-|
D|222-222-222-0-222-222-222-3-|
  xxx xxx xxx   xxx xxx xxx 


E|-------------------------------|
B|-------------------------------|
G|-------------------------------|
D|---------------3--3-3---3--3-6-|
A|222-222-222-0--1--1-3---1--1-4-|
D|222-222-222-0-0--0--3--0—-0----|
  xxx xxx xxx   x  x     0  0
  of becoming desentisized


E|----------------------|
B|----------------------|
G|----------------------|  repeat 5x
A|----------------------|
D|00-00--0-00-00-00-00--|
A|00-00--0-00-00-00-00--|
  xx xx  x xx xx xx xx
  at least i think that's what i want.
  do you know what i want?
  do you know who i am?


E|----------------------------------|
B|----------------------------------|
G|----------------------------------| 
A|----------------------------------|
D|00-00--0-00-00-00-00-00-00-0-00-00|
A|00-00--0-00-00-00-00-00-00-0-00-00|
  xx xx  x xx xx xx xx
  do you like who i've become?
            
Tabs too difficult? Try these video lessons and learn fast.


comments powered by Disqus
↑ Back to top | Tablatures and chords are parodies/interpretations of the original songs. You may use it for private study, scholarship, research or language learning purposes only