» » »

1:43 Am Bass tabs (ver.1)

Artists:  A B C D E F G H I J K L M N O P Q R S T U V W X Y Z # 

1:43 Am Bass tabs (ver.1)

Walls Of Jericho
Rating:
0/5 (0 votes)

Tabs too difficult? Try these video lessons and learn fast.
                -----------------------------------------------------------------------------------
-----------------------------------------------------------------------------------


Tuning: standard BEADG

Intro (bass starts playing at 00:43):
G|-----------------------------------------------------------------------|
D|-----------------------------------------------------------------------|
A|-----------------------------------------------------------------------|
E|----------4~ -------------3---------------------4~ -------------3------|
B|-3~ ---------------6~ ------4-3~ ------3~ ---------------6~ ------4-3~ |

G|----------------------------------|
D|----------------------------------|
A|----------------------------------|
E|----------------------------------|
B|-----------------3~ --------------|

Verse 1 (pause a bit, then):
G|------------------------------------------------------|
D|------------------------------------------------------|
A|------------------------------------------------------|
E|------------6--------------------------6--------------|
B|-3-4-3--3-3----3~ ----------3-4-3--3-3----------------|

G|------------------------------------------------------|
D|------------------------------------------------------|
A|------------------------------------------------------|
E|--------------------------------------------------6---|x3
B|-3-3-3-3-3-3--333-333-333-3-3-3-3-3-3--3-4-3--3-3-----|

G|------------------------------------------------------|
D|------------------------------------------------------|
A|------------------------------------------------------|
E|--------------------------------------------------6---|
B|-3-3-3-3-3-3--333-333-333-3-3-3-3-3-3--3-4-3--3-3---3-|

Bridge:
G|-------------|
D|-------------|
A|-------------|
E|-------------|
B|-333-333-333-|

G|------------------------------------------------------|
D|------------------------------------------------------|
A|------------------------------------------------------|
E|------------------------------------------------------|x3
B|-333-333-333--333-333-333--333-333-333--333-333-4~ ---|

G|-------------------------------------------|
D|-------------------------------------------|
A|-------------------------------------------|
E|---------------------------------------6---|
B|-333-333-333--333-333-333--6--3--4--6----6-|

Chorus:
G|----------------------------------------------------------------------|
D|----------------------------------------------------------------------|
A|----------------------------------------------------------------------|
E|-5-5-5-5-5-5-5-5-5-5-5-5-5-5-5-5--------------------------------------|
B|---------------------------------6-6-6-6-6-6-6-6-3-3-3-3-6-6-6-6------|
                                                                         >x2
G|-------------------------------------------------|
D|-------------------------------------------------|
A|-------------------------------------------------|
E|-5-5-5-5-5-5-5-5-5-5-5-5-5-5-5-5-------------6---|
B|---------------------------------6--3--4--6----6-|

Bridge:
G|--------------------------------------|
D|--------------------------------------|
A|--------------------------------------|
E|--------------------------------------|x2
B|------------------------------6-6-6-6-|

G|---------------------------------------------------------------------------|
D|---------------------------------------------------------------------------|
A|---------------------------------------------------------------------------|
E|----------------------------------------------6-6-6-6-6-6--5-5-5-5---------|x3
B|-3-3-3-3-3-3----4-4-4-4-4-4----6-6-6-6-6-6-------------------------6-6-6-6-|

Chorus:
G|---------------------------------------------------------------------------|
D|---------------------------------------------------------------------------|
A|---------------------------------------------------------------------------|
E|----------------------------------------------6-6-6-6-6-6--5-5-5-5---------|
B|-3-3-3-3-3-3----4-4-4-4-4-4----6-6-6-6-6-6-------------------------6-6-6-6-|

G|-----------------------------------------------------------------------------|
D|-----------------------------------------------------------------------------|
A|-----------------------------------------------------------------------------|
E|-----------------------------------------------------------------------------|
B|-33333333333--3-3-3-3-3-3--33333333333--3-3-3-3-3-3--33333333333--3-3-3-3-3-3|
                                                                                >x2
G|--------------------------|
D|--------------------------|
A|--------------------------|
E|--------------------------|
B|-33333333333--3-3-6-6-6-6-|

Outro:
G|-----------------------------------------------------------------------------|
D|-----------------------------------------------------------------------------|
A|-----------------------------------------------------------------------------|
E|-----------------------------------------------------------------------------|
B|------------------------------------------------------------------6-6-6-6-3~ |


===================================================================================
Notes:
I made this tab for a request on the request board. It was requested in standard 
tuning, so I did it that way, but the song really is played in Drop-A or tuning 
down only the B string to A. This thing only matters under the first chorus, where
the 5s on the E string would be 0s on A0.

If You have problems with this tab, write Me a mail what's wrong with it instead 
of giving it a bad rating! It'd be better for everyone! Thx!



| /  slide up
| \  slide down
| h  hammer-on
| p  pull-off
| ~  let the note ring
| +  harmonic
| x  Mute note
===================================================================================
            
Tabs too difficult? Try these video lessons and learn fast.




comments powered by Disqus
↑ Back to top | Tablatures and chords are parodies/interpretations of the original songs. You may use it for private study, scholarship, research or language learning purposes only