» » »

Wallis Bird, The Circle Ukulele Chords (ver.1)

Artists:  A B C D E F G H I J K L M N O P Q R S T U V W X Y Z # 

The Circle Ukulele Chords (ver.1)

Wallis Bird Tabs
 Rating:
4/5 (4 votes)
The Circle lessons Tabs too difficult? Try these video lessons and learn fast
                ----------------------------------------------------------------------------
                             THE CIRCLE - Wallis Bird
----------------------------------------------------------------------------

Tuning: Standard, capo on 7th fret

Intro goes basically like this; softly (x4) look to song for strumming pattern

e|-0--2--3----3--3---------------------------------------------------------|
B|-0--3--3----3--3---------------------------------------------------------|
G|-0--2--0----0--0---------------------------------------------------------|
D|-0--0--0----0--0---------------------------------------------------------|
A|-2--0--0h2--0--0h2-------------------------------------------------------|
E|-2--x--3----3--3---------------------------------------------------------|

Then there's a connection;

e|-------------------------------------------------------------------------|
B|-------------------------------------------------------------------------|
G|-------------------------------------------------------------------------|
D|-2h4p2p0-----------------------------------------------------------------|
A|--------0h2p0------------------------------------------------------------|
E|-------------------------------------------------------------------------|

Then repeat the intro x8 and on the 5th repeat, strum and then quickly mute the strings 
your palm.

Then there's the bridge, again, look to song for strumming pattern. (repeat in brackets 4x)

e|-3---3----3----3----2--(0--2)-2------------------------------------------|
B|-3---3----3----3----3--(1--3)-3------------------------------------------|
G|-0---0----0----0----2--(0--4)-2------------------------------------------|
D|-0h2-2----0h2--2----0--(2--4)-0------------------------------------------|
A|-3---0h2--3----0----0--(3--2)-0------------------------------------------|
E|-x---x----x----x----0--(x--2)-x------------------------------------------|


Repeat intro 8x

Repeat bridge

Repeat intro 8x

Then strum this, and while strumming pull off and hammer on from 2nd fret to 0 on each 
4 times before switching chords. If you didn't understand that, just listen to the song. 
this until the song is over, and that's that!

e|-3----2------------------------------------------------------------------|
B|-3----3------------------------------------------------------------------|
G|-0----2p0----------------------------------------------------------------|
D|-2p0--0------------------------------------------------------------------|
A|-3----0------------------------------------------------------------------|
E|-x----0------------------------------------------------------------------|

| /  slide up
| \  slide down
| h  hammer-on
| p  pull-off
| ~  vibrato
| +  harmonic
| x  Mute note
============================================================================
            
Submit corrections

comments powered by Disqus
↑ Back to top | Wallis Bird Ukulele for The Circle. Lyrics for acoustic guitar and electric guitar. Tablatures and chords are parodies/interpretations of the original songs. You may use it for private study, scholarship, research or language learning purposes only