» » »

Wallis Bird, I Am So Tired Of That Line Tabs (ver.1)

Artists:  A B C D E F G H I J K L M N O P Q R S T U V W X Y Z # 

I Am So Tired Of That Line Tabs (ver.1)

Wallis Bird Tabs
Rating:
0/5 (0 votes)
I Am So Tired Of That Line lessons Tabs too difficult? Try these video lessons and learn fast
                
-------------------------------------------------------------------------------
-----------------------------------------------------------------------------
tune it's a cracker.
It's probably not 100% because she makes it awkward playing a right handed guitar upside down, 
but I think it's nearly there. Hope it makes sense and any feedback and 
corrections will be well appreciated

This is the video Iv been working from, have a look at it while your learning, 
it'll be a big help: 


Tuning: Drop D, capo 2nd. Listen to the song for strumming pattern and fills

Intro: Play this twice with a slight variation second time round before the verse. 

e|-0-0-0--0---0---0---00000--0-0---0---0---0----0-0-0-(0)-0-0-0-0000-0-0-xx-|
B|-0-0-0--0---0---0---00000--0-0---0---0---0----0-0-0-(0)-0-0-0-0000-0-0-xx-|
G|-0-0-0--0---0---0---00000--0-0---0---0---0----0-0-0-(0)-0-0-0-0000-0-0-xx-|
D|-7-7-7--2-/-5-\-2-/-77777--5-7---2-/-5-\-2-/--4-4-4-(4)/5-5-5/7777-5-7-xx-|
A|-0-0-0--0---0---0---00000--0-0---0---0---0----0-0-0-(0)-0-0-0-0000-0-0-xx-|
E|-7-7-7--2-/-5-\-2-/-77777--5-7---2-/-5-\-2-/--4-4-4-(4)/5-5-5/7777-5-7-xx-|

Verse: I love you, and you love me....

e|-0--0-0--0--xx-0--0--0---0-0-0--0-0-0-(0)-0-0-0-0000-0-0---0---0---0--|
B|-0--0-0--0--xx-0--0--0---0-0-0--0-0-0-(0)-0-0-0-0000-0-0---0---0---0--|
G|-0--0-0--0--xx-0--0--0---0-0-0--0-0-0-(0)-0-0-0-0000-0-0---0---0---0--|
D|-7--9-9/-13-xx-13-13-13--9-9-7--4-4-4-(4)/5-5-5/7777-5-7---2-/-5-\-2--|
A|-0--0-0--0--xx-0--0--0---0-0-0--0-0-0-(0)-0-0-0-0000-0-0---0---0---0--|
E|-7--9-9/-13-xx-13-13-13--9-9-7--4-4-4-(4)/5-5-5/7777-5-7---2-/-5-\-2--|

e|-0--0-0--0--xx-0--0--0---0-0-0--0-0-0-(0)-0-0-0-0000-0-0------|
B|-0--0-0--0--xx-0--0--0---0-0-0--0-0-0-(0)-0-0-0-0000-0-0------|
G|-0--0-0--0--xx-0--0--0---0-0-0--0-0-0-(0)-0-0-0-0000-0-0------|
D|-7--9-9/-13-xx-13-13-13--9-9-7--4-4-4-(4)/5-5-5/7777-5-7------|
A|-0--0-0--0--xx-0--0--0---0-0-0--0-0-0-(0)-0-0-0-0000-0-0------|
E|-7--9-9/-13-xx-13-13-13--9-9-7--4-4-4-(4)/5-5-5/7777-5-7------|

(From here I'm not totally sure of the chord patters but...)

Pre Chorus: Tell me do ya hear what I hear...
         AYO      AYO
e|--------------------0-0-0-(0)-0-0-0-0000-0-0|
B|--------------------0-0-0-(0)-0-0-0-0000-0-0|
G|-6-6-6-----6-6-6----0-0-0-(0)-0-0-0-0000-0-0|
D|-7-7-7-----7-7-7----4-4-4-(4)/5-5-5/7777-5-7|
A|-7-7-7-----7-7-7----0-0-0-(0)-0-0-0-0000-0-0|
E|-7-7-7-----7-7-7----4-4-4-(4)/5-5-5/7777-5-7|

 Come on every woman every man.....
         AYO      AYO
e|--------------------0-0-0...-0-0-0---------|
B|--------------------0-0-0...-0-0-0---------|
G|-6-6-6-----6-6-6----4-4-4...-0-0-0---------|
D|-7-7-7-----7-7-7----5-5-5...-0-0-0---------|
A|-0-0-0-----0-0-0----0-0-0...-0-0-0---------|
E|-7-7-7-----7-7-7----5-5-5...-0-0-0--2/14\2-|


Chorus: So fight your laws, a train's comin'....
       (listen to the song for strumming pattern)

e|-------0--0--0--0--0--0---0--------0------------------|
B|-------0--0--0--0--5--0---0--------0------------------|
G|-------6--0--6--4--0--11--11--(6)--4------------------|
D|-(13)--7--5--0--0--0--12--11--(7)--5------------------|
A|-(13)--7--5--0--0--0--12--12--(7)--5------------------|
E|-(13)--7--0--4--2--0--12--11--(7)--5------------------|


Then: Intro
      Pre-Chorus
      Chorus (slight variation)
      Bridge (you'll jave to figure that out yourself) 
      Chorus

      Enjoy!

************************************

| /   slide up
| \   slide down
| h   hammer-on
| p   pull-off
| ~   vibrato
| +   harmonic
| x   Mute note
| b   Bend
| pb  Pre-bend
| br  Bend release
| pbr Pre-bend release
| brb Bend release bend

************************************
            
Submit corrections

comments powered by Disqus
↑ Back to top | Wallis Bird Tabs for I Am So Tired Of That Line. Lyrics for acoustic guitar and electric guitar. Tablatures and chords are parodies/interpretations of the original songs. You may use it for private study, scholarship, research or language learning purposes only