» » »

Wallflowers, Sleepwalker Tabs (ver.1)

Artists:  A B C D E F G H I J K L M N O P Q R S T U V W X Y Z # 

Sleepwalker Tabs (ver.1)

Wallflowers Tabs
 Rating:
4.5/5 (8 votes)
Sleepwalker lessons Tabs too difficult? Try these video lessons and learn fast
1
                SleepWalker 
Of the new album "Breach"
By Brian S.

There are a lot of guitars in this song - 

Intro 4x

Guitar 1 (jakob)
  Em
E-0----------------------------------------------------
B-0----------------------------------------------------
G-0----------------------------------------------------
D-2----------------------------------------------------
A-2----------------------------------------------------
E-0~~~~~~~~~-------------------------------------------
 guitar 2 : 
  Em
E-----------------------------------------------------
B-8---------------------------------------------------
G-9---------------------------------------------------
D-9---------------------------------------------------
A-7~~~~~~~~~------------------------------------------
E-----------------------------------------------------
  guitar 3: (play throughout song)
  Em
E-----------------------------------------------------
B-----------------------------------------------------
G----------------16~----------------------------------
D-(14)-17-16-14~-----16-17-14-------------------------
A-----------------------------------------------------
E-----------------------------------------------------


Em			      G
Maybe i could be the one they adore.
G
That could be my reputation.
Em                              G
G
I'm an educated version.4

Chorus :

    Em                     Asus
E---0--------------------------------------------------
B---0--------------------------------------------------
G---0-----------------------2--------------------------
D---2-----------------------2--------------------------
A---2-----------------------0--------------------------
E--0---------------------------------------------------
     Sleepwalker dont ....    Might open your eyes....
            
Submit corrections

comments powered by Disqus
↑ Back to top | Wallflowers Tabs for Sleepwalker. Lyrics for acoustic guitar and electric guitar. 1 Tablatures and chords are parodies/interpretations of the original songs. You may use it for private study, scholarship, research or language learning purposes only