» » »

Wallflowers, One Headlight Tabs (ver.3)

Artists:  A B C D E F G H I J K L M N O P Q R S T U V W X Y Z # 

One Headlight Tabs (ver.3)

Wallflowers Tabs
 Rating:
4/5 (12 votes)
One Headlight lessons Tabs too difficult? Try these video lessons and learn fast
                #

OnE HeAdLiGhT
By The WallFlowers

INTRO:

1}-----------------------------------
2}-3--3--3--3--3--3------------------
3}-0--0--2--0--0--2------------------
4}-0--0--0--0--0--0--0--------0------
5}----------------------4--0-----4--0
6}-----------------------------------

Verse:

G-D-F#-B#   (PLAY EACH 8 TIMES)

   G   D   F#  B#
1}-3---2---1---2-----------
2}-0---3---1---3-----------
3}-0---2---3---4-----------
4}-0---0---4---4-----------
5}-2-----------------------
6}-3-----------------------

PRE-CHORUS
G-D   (G PLAYED 8 TIMES, D PLAYED 16 TIMES)

CHORUS: G-D  THEN:

1}------------------------
2}------------------------
3}------------------------
4}--------------2--2--2--2
5}-----------2--0--0--0--0
6}--0--2--3---------------

PLAY THIS TWICE
THEN BACK TO G-D

THEN BACK TO G-D-F#-B#


THIS SONG IS PRETTY EASY
LISTEN TO THE SONG TO GET THE RYTHM


 Kurt156



This is an awesome song and took me a long time to finally
tab out so make good use of it. It takes a lot of 
memorization to remember it all. Lots of parts are really 
hard to hear so they probably aren't correct but it will 
probably come it in a magazine sometime in the near future 
so you can check with it.

-TUNE YOUR GUITAR TO "DROP D" TUNING

/-Slide Up
\-slide Down
p-Pull Off
h-Hammer On
~-Vibrato
b-Bend
r-Release The Bend
X-Mute

Intro:

E|-----------------------------------------------------------|
B|-----------------------------------------------------------|
G|------------------------------------/9~p7-----------7------|
D|---5h7~~--5h7~~~~~~~5\4------------------9\7p55/9~~~-7\4~~-|
A|--5------5-------------5~\2~~~~~~~~~-----------------------|
E|-0------0--------------------------------------------------|

E|------------------||
B|-----3/5~~/7------||
G|------------77~~~-||
D|-2p0--------------||
A|------------------||
E|------------------||


Verse 1: Don't Play


Fill 1:

E|-7~~~~5~~~--------------------||
B|-0~~~~7~~~7~7~~~~~7p5-5~\3~~~-||
G|-7~~~~------7~\6~~----4~\2~~~-||
D|------------------------------||
A|------------------------------||
E|------------------------------||


Verse 2: Wait a bit before you start playing.

E|-5~~------5-5-5-55~~~-----------------------10~~10~~10---|
B|----/3~~~3-3-3-3-3~~~---10---------------/12~~~-------12~|
G|----/3~~~-----------------7------------------------------|
D|-----------------------------8~~-0-0-0-0-----------------|
A|--------------------------------2-2-2-2------------------|
E|---------------------------8~----------------------------|

E|-10~~10~~10~~~9~~9~~9~~9~~9~~9~~9~~9~~~-||
B|---12~~12~~12~~11~11~11~11~11~11~11~11~-||
G|----------------------------------------||
D|----------------------------------------||
A|----------------------------------------||
E|----------------------------------------||

Chorus:

E|-----|------|-----|-----| *************************
B|-----|------|-----|-----| *There is actually a bit*
G|-----|------|-----|-----| *more to the chorus but *
D|--5--|--12--|--2--|--7--| *it still sounds good   *
A|--5--|--12--|--2--|--7--| *just playing the chords*
E|--5--|--12--|--2--|--7--| *************************

Fill 2:

E|-7~~~-----------------------||
B|-0~~~10\-7~~7/8\7----7------||
G|-4~~~11\-7~~-----9~~9-7~~~~-||
D|-5~~~-----------------9~~~~-||
A|----------------------------||
E|----------------------------||

Verse 3: Wait a bit before you start playing.

E|--------------------7~~-----------------------------------|
B|-----------------------7~~---5p05p0---------------7b~r----|
G|-3/4\3~~---------------7~~7~~------0h7~~~~--4\2---7b~r7~~-|
D|---------0-0-0-0-------------------^----------------------|
A|--------2-2-2-2-------------Don't hit the open------------|
E|----------------5~~~------------------------------------X-|

E|----6~----------------------------------------------------|
B|----7~-------------------------------2~22~2222~~~---------|
G|----6~-----------7~77~7777~7~77~7777~3~33~3333~~~---------|
D|---------00~0~0--9~99~9999~7~77~7777~4~44~4444~~~-00-0-0--|
A|--------2~~2~4-----------------------------------2--4-4---|
E|-XX------------5~---------------------------------------5~|

E|------------------------------------------||
B|-15~15~-15~15~---14~---14~---14~---14~----||
G|------16~-----16~---15~---15~---15~---15~-||
D|------------------------------------------||
A|------------------------------------------||
E|------------------------------------------||

Chorus: Same as before

Solo: Play with slide & Delay

E|--------------17~\12~~~12~/14\10~~~~/19~~~22~\1717~~-|
B|-12~/15~/19~~~---------------------------------------|
G|-----------------------------------------------------|
D|-----------------------------------------------------|
A|-----------------------------------------------------|
E|-----------------------------------------------------|



E|----17-------------------||
B|-/19--19~\17~~14~~/15~~~-||
G|-------------------------||
D|-------------------------||
A|-------------------------||
E|-------------------------||

Verse 4: Wait a bit before you start playing.

E|-5~7--------------------------------------------------|
B|----0~3~~~~--7b~r5\3\2~~~---------------10~~~---------|
G|------------------------------------4~/7------2h4p2---|
D|----------------------------0~~0~---5~-------0~~~~4---|
A|--------------------------2~~~4~205~----------------0-|
E|----------------------------------5~------------------|

E|-------------------------55555~~-6~6~~~--------5~5710~|
B|--------------------3~3~~88877~~-7~7~~~---------------|
G|------------------4~4~4~~77777~~-6~6~~~---------------|
D|---4~--4~---0--00~5~5~---------------------0~~0-------|
A|-4~4~4X4~-2~-24-0~---------------------2~~20~~--------|
E|-4~--4X-----------------------------------------------|

E|---5~----0~0~00000000-||
B|-7~--5~3~2~2~22222222-||
G|---------3~3~33333333-||
D|---------4~4~44444444-||
A|----------------------||
E|----------------------||

Chorus: Same as before

Outro Solo:

E|-----------00-00-00---------------0---0--------------------|
B|-----------77-55-33-7b~~7~5~3~2b~~2~r--3-------------------|
G|-4~77~1111~--------------------------2--0-0----------------|
D|-5~99~1212~--------------------------------4b~r4b~r---4-42~|
A|---------------------------------------------------0~~-----|
E|-----------------------------------------------------------|

E|------------0------||
B|---0~00~~--0-0-0~~-||
G|-0~~0~---6----7----||
D|--4~-----7---------||
A|-------------------||
E|-------------------||
 |
 |A DIFFERENT GUITAR
E|---------------------/10~~10----10~~10----55--555------------|
B|---------------7--77---------77---------/7--/7---887887887~--|
G|-------------/7-7~--7-------7--7------7~-------------------7~|
D|-------------------------------------------------------------|
A|-------------------------------------------------------------|
E|-------------------------------------------------------------|

E|---------7----------1010~~10~~10~~10~~10~~10~~-||
B|----887-8---/12~XX12~~--12~~12~~12~~12~~12~~---||
G|-777---7---------------------------------------||
D|-----------------------------------------------||
A|-----------------------------------------------||
E|-----------------------------------------------||

ANOTHER GUITAR:

E|---------14~~--15~--14~--12~--------14~10~--------------14~~~|
B|------------------------------------------12--1012--10-------|
G|-19\14~14~---16~--14~--12~--12~12/14--------12----12--11-----|
D|-------------------------------------------------------------|
A|-------------------------------------------------------------|
E|-------------------------------------------------------------|

E|-1919\1515---14-12~~/1410-10~~~-||
B|-----------------X--------------||
G|----------/16---12~~------------||
D|--------------------------------||
A|--------------------------------||
E|--------------------------------||

There's actually about 6 different guitars in this song but 
I basically tabbed out the one lead guitar except for in the
solo and in the outro.
            
Submit corrections

comments powered by Disqus
↑ Back to top | Wallflowers Tabs for One Headlight. Lyrics for acoustic guitar and electric guitar. Tablatures and chords are parodies/interpretations of the original songs. You may use it for private study, scholarship, research or language learning purposes only