>
 >
One Headlight 1

One Headlight 1 Guitar Tabs

Wallflowers - One Headlight 1 chords, tabs, tablatures, lyrics

Guitar lessons | Add/correct | Request | Top 50 tabs Artists:  A B C D E F G H I J K L M N O P Q R S T U V W X Y Z 0-9

One Headlight 1 Guitar Tabs – Wallflowers

CD, Sheet music, Poster

Do you like One Headlight 1? Share with your friends now
Bass TabsBass Tabs v2ChordsChords v2Chords v3Chords v4Chords v5Chords v6TabsTabs v2Tabs v3Tabs v4UkuleleUkulele v2
--------------------------------------------------------------------------------------------
                             ONE HEADLIGHT - The Wallflowers
--------------------------------------------------------------------------------------------
Uploaded by: Eric 
--------------------------------------------------------------------------------------------

Tuning: Standard

Chords Used in this Song:

 -----------------
|                 |
|  G     (320033) |
|  D     (x00232) |
|  F#maj (244322) |
|  Bm    (x24432) |
|  A     (x02220) |
|  Asus4 (x02230) |
|  Em    (022000) |
|  F#m6  (200200) |
|                 |                 
 -----------------

Legend:

 -----------------
|                 |
|  h  (hammer on) | 
|  p   (pull off) |
|  V  (down strum)|
|  ^   (up strum) |
|                 |
 -----------------


Notes:  

The studio version of this song actually uses a bunch of overlapped guitars.
It's very difficult to tab it out for just one guitar, but here is an attempt.  

Also, I suggest playing the song with a kind of.."Horse Gallup" type strumming pattern,
while hitting mostly the lower strings:
Down-Down Up, Down-Down Up, etc

--------------------------------------------------------------------------------------------

Intro (Drop-D Tuning):


e|---------------------------------------------------|-------|
B|---------------------------------------------------|-------|
G|--------0h2--------0h2-----------------------------|-------|
D|-------------------------------------------5p4--0--|-------|
A|------0----------0---------------------------------|--0h2--|
E|----0----------0-----------------------------------|-------|



  The intro is actually played with Drop-D tuning.  
However, in order to avoid tuning your guitar to Drop-D, 
you could play it in STANDARD TUNING like below, to make it
sound similar:



Intro (Standard Tuning):


e|---------------------------------------------------|-------|
B|---------------------------------------------------|-------|
G|--------0h2--------0h2-----------------------------|-------|
D|----0----------0---------------------------5p4--0--|-------|
A|------0----------0---------------------------------|--0h2--|
E|---------------------------------------------------|-------|



--------------------------------------------------------------------------------------------

Verse:


     G                                    D
     
     V V ^  V V ^  V V ^  V V ^           V V ^  V V ^  V V ^  V V ^                    

e|---3-3-3--3-3-3--3-3-3--3-3-3-----|-----2-2-2--2-2-2--2-2-2--2-2-2-----|
B|---3-3-3--3-3-3--3-3-3--3-3-3-----|-----3-3-3--3-3-3--3-3-3--3-3-3-----|
G|---0-0-0--0-0-0--0-0-0--0-0-0-----|-----2-2-2--2-2-2--2-2-2--2-2-2-----|
D|---0-0----0-0----0-0----0-0-------|-----0-0----0-0----0-0----0-0-------|
A|---2-2----2-2----2-2----2-2-------|-----0-0----0-0----0-0----0-0-------|
E|---3-3----3-3----3-3----3-3-------|-----x-x----x-x----x-x----x-x-------|




     F#                                   Bm             A
     
     V V ^  V V ^  V V ^  V V ^           V V ^  V V ^   V V ^  V V ^                    

e|---2-2-2--2-2-2--2-2-2--2-2-2-----|-----2-2-2--2-2-2---0-0-0--0-0-0-----|
B|---2-2-2--2-2-2--2-2-2--2-2-2-----|-----3-3-3--3-3-3---2-2-2--2-2-2-----|
G|---3-3-3--3-3-3--3-3-3--3-3-3-----|-----4-4-4--4-4-4---2-2-2--2-2-2-----|
D|---4-4----4-4----4-4----4-4-------|-----4-4----4-4-----2-2----2-2-------|
A|---4-4----4-4----4-4----4-4-------|-----2-2----2-2-----0-0----0-0-------|
E|---2-2----2-2----2-2----2-2-------|-----x-x----x-x-----x-x----x-x-------|




--------------------------------------------------------------------------------------------

Pre-chorus:


     G

     V V ^  V V ^  V V ^  V V ^  V V ^  V V ^  V V ^  V V ^       

e|---3-3-3--3-3-3--3-3-3--3-3-3--3-3-3--3-3-3--3-3-3--3-3-3--------|
B|---3-3-3--3-3-3--3-3-3--3-3-3--3-3-3--3-3-3--3-3-3--3-3-3--------|
G|---0-0-0--0-0-0--0-0-0--0-0-0--0-0-0--0-0-0--0-0-0--0-0-0--------|
D|---0-0----0-0----0-0----0-0----0-0----0-0----0-0----0-0----------|
A|---2-2----2-2----2-2----2-2----2-2----2-2----2-2----2-2----------|
E|---3-3----3-3----3-3----3-3----3-3----3-3----3-3----3-3----------|




     F#

     V V ^  V V ^  V V ^  V V ^  V V ^  V V ^  V V ^  V V ^       

e|---2-2-2--2-2-2--2-2-2--2-2-2--2-2-2--2-2-2--2-2-2--2-2-2--------|
B|---2-2-2--2-2-2--2-2-2--2-2-2--2-2-2--2-2-2--2-2-2--2-2-2--------|
G|---3-3-3--3-3-3--3-3-3--3-3-3--3-3-3--3-3-3--3-3-3--3-3-3--------|
D|---4-4----4-4----4-4----4-4----4-4----4-4----4-4----4-4----------|
A|---4-4----4-4----4-4----4-4----4-4----4-4----4-4----4-4----------|
E|---2-2----2-2----2-2----2-2----2-2----2-2----2-2----2-2----------|



--------------------------------------------------------------------------------------------


Chorus:


     G                                    D
     
     V V ^  V V ^  V V ^  V V ^           V V ^  V V ^  V V ^  V V ^                    

e|---3-3-3--3-3-3--3-3-3--3-3-3-----|-----2-2-2--2-2-2--2-2-2--2-2-2-----|
B|---3-3-3--3-3-3--3-3-3--3-3-3-----|-----3-3-3--3-3-3--3-3-3--3-3-3-----|
G|---0-0-0--0-0-0--0-0-0--0-0-0-----|-----2-2-2--2-2-2--2-2-2--2-2-2-----|
D|---0-0----0-0----0-0----0-0-------|-----0-0----0-0----0-0----0-0-------|
A|---2-2----2-2----2-2----2-2-------|-----0-0----0-0----0-0----0-0-------|
E|---3-3----3-3----3-3----3-3-------|-----x-x----x-x----x-x----x-x-------|




     Em     F#6    G         Em G            A                          
     
     V V ^  V V ^  V V ^     V  V            V V ^  V V ^  V V ^  V V ^ 

e|-------0------0------0---------------|-----0-0-0--0-0-0--0-0-0--0-0-0-----|
B|-------0------0------0---------------|-----2-2-2--2-2-2--2-2-2--2-2-2-----|
G|---0-0-0--2-2-0--0-0-0-----0--0------|-----2-2-2--2-2-2--2-2-2--2-2-2-----|
D|---2-2----0-0----0-0-------2--0------|-----2-2----2-2----2-2----2-2-------|
A|---2-2----0-0----2-2-------2--2------|-----0-0----0-0----0-0----0-0-------|
E|---0-0----2-2----3-3-------0--3------|-----x-x----x-x----x-x----x-x-------|





     G                                    D
     
     V V ^  V V ^  V V ^  V V ^           V V ^  V V ^  V V ^  V V ^                    

e|---3-3-3--3-3-3--3-3-3--3-3-3-----|-----2-2-2--2-2-2--2-2-2--2-2-2-----|
B|---3-3-3--3-3-3--3-3-3--3-3-3-----|-----3-3-3--3-3-3--3-3-3--3-3-3-----|
G|---0-0-0--0-0-0--0-0-0--0-0-0-----|-----2-2-2--2-2-2--2-2-2--2-2-2-----|
D|---0-0----0-0----0-0----0-0-------|-----0-0----0-0----0-0----0-0-------|
A|---2-2----2-2----2-2----2-2-------|-----0-0----0-0----0-0----0-0-------|
E|---3-3----3-3----3-3----3-3-------|-----x-x----x-x----x-x----x-x-------|




     Em     F#6    G         Em G            A                          
     
     V V ^  V V ^  V V ^     V  V            V V ^  V V ^  V V ^  V V ^ 

e|-------0------0------0---------------|-----0-0-0--0-0-0--0-0-0--0-0-0-----|
B|-------0------0------0---------------|-----2-2-2--2-2-2--2-2-2--2-2-2-----|
G|---0-0-0--2-2-0--0-0-0-----0--0------|-----2-2-2--2-2-2--2-2-2--2-2-2-----|
D|---2-2----0-0----0-0-------2--0------|-----2-2----2-2----2-2----2-2-------|
A|---2-2----0-0----2-2-------2--2------|-----0-0----0-0----0-0----0-0-------|
E|---0-0----2-2----3-3-------0--3------|-----x-x----x-x----x-x----x-x-------|




     Asus4                                    
     
     V V ^  V V ^  V V ^  V V ^                              

e|---0-0-0--0-0-0--0-0-0--0-0-0-----|
B|---3-3-3--3-3-3--3-3-3--3-3-3-----|
G|---2-2-2--2-2-2--2-2-2--2-2-2-----|
D|---2-2----2-2----2-2----2-2-------|
A|---0-0----0-0----0-0----0-0-------|
E|---x-x----x-x----x-x----x-x-------|



--------------------------------------------------------------------------------------------


Timing for chorus chords:


Em         F#m6     G   Em   G     A
   There's got  to  be  some-thing better Than...


--------------------------------------------------------------------------------------------

Outro:

Just keep playing the chorus, but without the Asus4!

--------------------------------------------------------------------------------------------





Comments


Popular Wallflowers tabs & chords
Babybird Chords
Everything I Need Chords
God Says Nothing Back Chords
Witness Chords
Be Your Own Girl Tabs
Invisible City Tabs
The Marlenas Tabs
Everything I Need Ukulele
Here He Comes Confessions Of A Drunken Marionette Ukulele
Tears Of A Clown Ukulele


Song lyrics



↑ Back to top | Tablatures and chords are parodies/interpretations of the original songs. You may use it for private study, scholarship, research or language learning purposes only
© 2014 AZChords.com Contact us | Privacy policy | DMCA | Add/correct tabs | Request tabs | Top 50 tabs