» » »

Wallflowers, One Headlight Bass tabs (ver.2)

Artists:  A B C D E F G H I J K L M N O P Q R S T U V W X Y Z # 

One Headlight Bass tabs (ver.2)

Wallflowers Tabs
 Rating:
4/5 (4 votes)
One Headlight lessons Tabs too difficult? Try these video lessons and learn fast
                -----------------------------------------------------------------------------
                             ONE HEADLIGHT - The Wallflowers
-----------------------------------------------------------------------------


Tuning: EADG (Standard)

This is a pretty straight-forward song, split into just three sections:
Verse
Pre-Chorus
Chorus

I use the verse variation in the bars where there is no vocal, and every other repeat in 
the guitar break

Verse
G|----------------|---------------|---------------|-----------------|
D|----------------|---------------|---------------|-----------------|
A|----------------|5-555-555-555-7|---------------|2-222-2--0-000-2-|
E|-3-333-333-333-3|---------------|2-222-222-222-2|-----------------|

Pre-Chorus
G|----------------|---------------|---------------|-----------------|
D|----------------|---------------|---------------|-4---2-----------|
A|----------------|---------------|-----0---4-----|---------5---4---|
E|-3-333-333-333-333-333-333-333-3|-2-------------|-----------------|

Chorus
G|----------------|---------------|---------------|-----------------|
D|----------------|---------------|---------------|-----------------|
A|----------------|5-555-555-555-7|------------22-|0-000-000-000-002|
E|-3-333-333-333-3|---------------|00--22--33-----|-----------------|

Verse (Variation)
G|----------------|---------------|---------------|-----------------|
D|----------------|---------------|4-444-444-444-4|-----------------|
A|----------------|5-555-555-555-7|---------------|2-222-2--0-000-2-|
E|-3-333-333-333-3|---------------|---------------|-----------------|



| /  slide up
| \  slide down
| h  hammer-on
| p  pull-off
| ~  vibrato
| +  harmonic
| x  Mute note
=============================================================================
            
Submit corrections

comments powered by Disqus
↑ Back to top | Wallflowers Bass for One Headlight. Lyrics for acoustic guitar and electric guitar. Tablatures and chords are parodies/interpretations of the original songs. You may use it for private study, scholarship, research or language learning purposes only