» » »

Wallflowers, Josephine Chords (ver.2)

Artists:  A B C D E F G H I J K L M N O P Q R S T U V W X Y Z # 

Josephine Chords (ver.2)

Wallflowers Tabs
 Rating:
4/5 (4 votes)
Josephine lessons Tabs too difficult? Try these video lessons and learn fast
1
                #

               JOSEPHINE (from bringing down the horse)
                   words and music by: Jakob Dylan

Verse:

D                A
I feel pretty good
D         A
I feel alright
D
And I've been thinkin' maybe
D                         A
I could spend the night

I know you've been sad
I know I've been bad
But if you'd let me
Make you ribbons from a paper bag

Chorus:
A         F#
Josephine
               E 
Your so good to me
       D  
And I know
          A  
It ain't easy
        F#
Josephine
               Bm 
You're so sweet
               D                    E                          D  
You must taste, just like sugar.....and tangerines


I won't make a sound
Sleep on the ground
When you wake I will
Drive you into town

I missed your smile
Your schoolgirl style
But I never had much fun
Maybe the very first mile

(chorus)

E
Don't you know
                                  D
I watched you walkin' home from school
                              D7
Your friends on the old playground
       A                        D 
You never looked so down
?                               ?
Won't you come and help me with these cuts of mine?
                  D
I've disconnected my heart
        A                       E
And cut myself on the wires
D          A
Josephine

I know I was wrong
I knew all along
But I got so far from my home
I never thought I'd be lonesome

(chorus)



SOLO:

e----------------------------------------------------------------------------
B-------17------------17-15-14-15---14-15-14--12--10------------------
G---------------------------------------------------------------------------
D---------------------------------------------------------------------------
A---------------------------------------------------------------------------
E----------------------------------------------------------------------------

e----------------------------------------------------------------------------
B------14-14-12-------------15-----14-15--14-12------------------------
G----------------------------------------------------14-13-----------------
D---------------------------------------------------------------------------
A---------------------------------------------------------------------------
E---------------------------------------------------------------------------

                                                                                                               ÿÿÿÿÿÿÿÿÿÿÿÿ                                                

               JOSEPHINE (from bringing down the horse)
                   words and music by: Jakob Dylan


Verse:

D                A
I feel pretty good
D         A
I feel alright
D
And I've been thinkin' maybe
D                         A
I could spend the night

I know you've been sad
I know I've been bad
But if you'd let me
Make you ribbons from a paper bag

Chorus:
A         F#
Josephine
               E 
Your so good to me
       D  
And I know
          A  
It ain't easy
        F#
Josephine
               Bm 
You're so sweet
               D                    E                          D  
You must taste, just like sugar.....and tangerines


I won't make a sound
Sleep on the ground
When you wake I will
Drive you into town

I missed your smile
Your schoolgirl style
But I never had much fun
Maybe the very first mile

(chorus)

E
Don't you know
                                  D
I watched you walkin' home from school
                              D7
Your friends on the old playground
       A                        D 
You never looked so down
?                               ?
Won't you come and help me with these cuts of mine?
                  D
I've disconnected my heart
        A                       E
And cut myself on the wires
D          A
Josephine

I know I was wrong
I knew all along
But I got so far from my home
I never thought I'd be lonesome

(chorus)



SOLO:

e----------------------------------------------------------------------------
B-------17------------17-15-14-15---14-15-14--12--10------------------
G---------------------------------------------------------------------------
D---------------------------------------------------------------------------
A---------------------------------------------------------------------------
E----------------------------------------------------------------------------

e----------------------------------------------------------------------------
B------14-14-12-------------15-----14-15--14-12------------------------
G----------------------------------------------------14-13-----------------
D---------------------------------------------------------------------------
A---------------------------------------------------------------------------
E---------------------------------------------------------------------------


Well, that's about it.  If anyone can figure out the 5th line of the bridge
please let me know.  Feel free to E-mail me comments and corrections at
                                                          
            
Submit corrections

comments powered by Disqus
↑ Back to top | Wallflowers Chords for Josephine. Lyrics for acoustic guitar and electric guitar. 1 Tablatures and chords are parodies/interpretations of the original songs. You may use it for private study, scholarship, research or language learning purposes only