» » »

Invisible City Bass tabs (ver.1)

Artists:  A B C D E F G H I J K L M N O P Q R S T U V W X Y Z # 

Invisible City Bass tabs (ver.1)

Wallflowers
Rating:
0/5 (0 votes)

Hard to play? Try these video lessons and learn fast.
                

Track :Invisible City 
  
legend: (R)=let ring  
         / = slide

INTRO:
G|----------------|----------------|----------------|----------------|
D|----------------|----------------|----------------|-------------7/9|
A|7---------------|----------------|7---------------|----------------|
E|----------------|----------------|----------------|----------------|

G|----------------|----------------|----------------|----------------|
D|----------------|----------------|----------------|----------------|
A|7-7-------------|----------------|7---------------|----------------|
E|----------------|----------------|----------------|----------------|

  VERSE:1st Part 
G|----------------|----------------|----------------|----------------|
D|----------------|7---------------|----------------|7-------------/9|
A|7---------------|----------------|7---------------|----------------|
E|----------------|----------------|----------------|----------------|

G|----------------|----------------|----------------|----------------|
D|----------------|----------------|----------------|----------------|
A|7---------------|----------------|----------------|----------------|
E|----------------|4-------------/7|9---------------|\5--------------|
  
  2nd Part
G|----------------|----------------|----------------|----------------|
D|----------------|7-------------/9|----------------|7---------------|
A|7---------------|----------------|7---------------|----------------|
E|----------------|----------------|----------------|----------------|

G|----------------|----------------|----------------|----------------|
D|----------------|----------------|----------------|----------------|
A|7---------------|----------------|----------------|----------------|
E|----------------|4-------------/7|9-----7-----6(R)|----------------|

  CHROUS:1st Part
G|----------------|----------------|----------------|----------------|
D|----------------|----------------|----------------|----------------|
A|---------------6|7-7-------------|----------------|----------------|
E|9------------- -|----------------|7-7(R)----------|----------------|     

G|----------------|----------------|----------------|----------------|
D|----------------|----------------|----------------|----------------|
A|----------------|----------------|----------------|-------7------9-|
E|9------7------6-|--------------- |----------------|7---------------|

  CHROUS:2nd Part
G|----------------|----------------|----------------|----------------|
D|----------------|7---------------|----------------|7-------------/9|
A|7---------------|----------------|7---------------|----------------|
E|----------------|----------------|----------------|----------------|

G|----------------|----------------|----------------|----------------|
D|----------------|----------------|----------------|----------------|
A|7---------------|----------------|----------------|----------------|
E|----------------|7(R)------------|---------------/|9------7------6-|
  
  3rd Part
G|----------------|----------------|----------------|----------------|
D|----------------|7---------------|----------------|7-------------/9|
A|7---------------|----------------|7---------------|----------------|
E|----------------|----------------|----------------|----------------|


 ( VERSE:1st and 2nd part tab )

 ( CHORUS: 1st and 2nd Part only )

 ( sOLO...play CHORUS:1st Part only )

 ( VERSE...play VERSE 2nd Part only ) 

 ( CHORUS: 1st and 2nd Part only )

  OUTRO:
G|----------------|----------------|----------------|----------------|
D|----------------|7-------------/9|----------------|7------------7/9|
A|7---------------|----------------|7---------------|----------------|
E|----------------|----------------|----------------|----------------|

G|----------------|----------------|----------------||
D|----------------|7---------------|---------------.||
A|7-7-----------/9|----------------|7(R)-----------.||
E|----------------|----------------|----------------||
            
Hard to play? Try these video lessons and learn fast. | Correct




comments powered by Disqus
↑ Back to top | Tablatures and chords are parodies/interpretations of the original songs. You may use it for private study, scholarship, research or language learning purposes only