» » »

Wallflowers, Angel On My Bike Bass tabs (ver.1)

Artists:  A B C D E F G H I J K L M N O P Q R S T U V W X Y Z # 

Angel On My Bike Bass tabs (ver.1)

Wallflowers Tabs
 Rating:
4/5 (4 votes)
Angel On My Bike lessons Tabs too difficult? Try these video lessons and learn fast
                Intro    t h h h q e e h e e q q e e h                                          
G---||-|-2/4---------------------------||
D---||-|-----7-5-4---------4-5-5-4-----||
A---||-|-----------7-5-7-7---------7-5-||
E---||-|-------------------------------||
                                                                                

        q e e q e e q e e q e h   e e q e e e e e                           
G---||----------------7----------------------------||
D---||*-------------5---5-----------------4-5-4---*||
A---||*-2-2-2-0-0-0-------5-5/7\x-------7-------7-*||
E---||----------------------------0-2-3------------||
                                                                                

                                         To Chorus...
Verse  q e q e q e q e h e e q q e e q    q q q q q e e e                       
G---||---------------------------------||-----------------||--------------------
D---||---------------------------------||-----------------||--------------------
A---||-2-2-0-0-----5-5-----------------||-----------------||--------------------
E---||---------3-3-----0-0-2-3-0-3-3-5-||-5-5-5-5-5-0-2-3-||--------------------
                                                                                

Chorus  e e e e e e e e e e e e e e e e e e e e e e e e e e e e e e e e       
G---||-------------------------------------------------------------------||
D---||*-----------------7-7-7-7-7-7-7-7-5-5-5-5-5-5-5-5-5-5-5-5-5-5-5-5-*||
A---||*-5-5-5-5-5-5-5-5-------------------------------------------------*||
E---||-------------------------------------------------------------------||
                                                                                
Out of Chorus...
       e q q q q q q   e q q q t q q q e e e e e e                                 
G---||-------------------------2/4-4-4-4-----------||
D---||-------------------4-5-7-----------7-5-4-----||
A---||-------5-7-7-7-x-7-----------------------7-5-||
E---||-5-7-8---------------------------------------||
            
Submit corrections

comments powered by Disqus
↑ Back to top | Wallflowers Bass for Angel On My Bike. Lyrics for acoustic guitar and electric guitar. Tablatures and chords are parodies/interpretations of the original songs. You may use it for private study, scholarship, research or language learning purposes only