>
 >
Somebody That I Used To Know 1

Somebody That I Used To Know 1 Guitar Tabs

Walk Off The Earth - Somebody That I Used To Know 1 chords, tabs, tablatures, lyrics

Guitar lessons | Add/correct | Request | Top 50 tabs Artists:  A B C D E F G H I J K L M N O P Q R S T U V W X Y Z 0-9

Somebody That I Used To Know 1 Guitar Tabs – Walk Off The Earth

CD, Sheet music, Poster

Do you like Somebody That I Used To Know 1? Share with your friends now
TabsTabs v2Tabs v3Tabs v4Tabs v5Tabs v6
This is my first tab but i believe its pretty spot on. if you just listen to the song 
and individual parts it makes things a lot easier.

/ = slide up
v = vibrato


"bass" part           (VERSE)                                        (CHORUS)
e -------------------------|                e------------------------------|
B -------------------------|                B------------------------------|
G -------------------------|                G------------------------------|
D -------------------------|                D------------------------------|
A ---5--5--3--3--5--5------|                A ---5--5--3--3--1--1--3--3----|
E--------------------------|                E -----------------------------|
 *FOR THIS PART I DO BELIEVE THAT THE LOW E STRING IS TUNED TO AN A. IF YOU WATCH THE 
VIDEO IT LOOKS AS IF HE IS PLAYING ON THE E STRING BUT THIS IS SIMPLY DONE IN STANDARD TUNING.


Guy in the middle        (INTRO)
e ---------3--3--5--6--8--5--3--1--1--0--0-----------|
B---1--1------------------------------------3--3--1--|
G----------------------------------------------------|
D----------------------------------------------------|
A----------------------------------------------------|
E ---------------------------------------------------|


e --------3--3--5--6--8--5--3---------0--------3/5-------|
B --1--1-------------------------3--3-----3--3-----------|
G--------------------------------------------------------|
D--------------------------------------------------------|
A--------------------------------------------------------|
E -------------------------------------------------------|

                (VERSE 1)

e--------------------------------------------------|
B------3--3-----3--3-----3--3------3--3---3--3-----|
G--------------------------------------------------|
D--------------------------------------------------|
A--------------------------------------------------|
E -------------------------------------------------|

       (INTERLUDE)

e----5v--8--5-3--5----------0---5v--8--5-3--5---------|
B--3-----------------3--3-----3-----------------3-3---|
G ----------------------------------------------------|
D ----------------------------------------------------|
A- ---------------------------------------------------|
E-- --------------------------------------------------|

       (VERSE 2)

e --------------------------|
B-----3--3----3--3----3--3--|
G---------------------------|
D---------------------------|
A---------------------------|
E --------------------------|

            (CHORUS)

e---5---3--3--5----5---3--3--5----------5---3--3--5----5---3--3--5-------------|
B----------------6--------------6--5--3--------------6--------------6--5--3----|
G -----------------------------------------------------------------------------|
D -----------------------------------------------------------------------------|
A -----------------------------------------------------------------------------|
E -----------------------------------------------------------------------------|


e---------3--3--5--6--8--5--3--1--1--0--0------------|
B---1--1------------------------------------3--3--1--|
G----------------------------------------------------|
D----------------------------------------------------|
A----------------------------------------------------|
E----------------------------------------------------|


e --------3--3--5--6--8--5--3---------0--------3/5-------|
B --1--1-------------------------3--3-----3--3-----------|
G--------------------------------------------------------|
D--------------------------------------------------------|
A--------------------------------------------------------|
E -------------------------------------------------------|

      (BREAK)

e------------------------|
B----6--6--3--3--3--3----|
G------------------------|
D------------------------|       X6
A------------------------|
E------------------------|

         (VERSE 3)

e -----------5--5--5-------------5--5--5-------------5--5--5------------5--5--5---|
B---6--6--5--5--5--5----6--6--5--5--5--5----6--6--5--5--5--5---6--6--5--5--5--5---|
G---------------------------------------------------------------------------------|
D---------------------------------------------------------------------------------|
A---------------------------------------------------------------------------------|
E --------------------------------------------------------------------------------|


e---5--3----8--5--3----5--3----8--5--3---|
B--------------------5-------------------|
G----------------------------------------|
D----------------------------------------|
A----------------------------------------|
E----------------------------------------|

             (CHORUS)

e---5---3--3--5----5---3--3--5----------5---3--3--5----5---3--3--5-------------|
B----------------6--------------6--5--3--------------6--------------6--5--3----|
G -----------------------------------------------------------------------------|
D -----------------------------------------------------------------------------|
A -----------------------------------------------------------------------------|
E -----------------------------------------------------------------------------|


e ---------3--3--5--6--8--5--3--1--1--0--0-----------|
B---1--1------------------------------------3--3--1--|
G----------------------------------------------------|
D----------------------------------------------------|
A----------------------------------------------------|
E ---------------------------------------------------|


e --------3--3--5--6--8--5--3---------0------------------|
B --1--1-------------------------3--3-----3--3--1--------|
G--------------------------------------------------------|
D--------------------------------------------------------|
A--------------------------------------------------------|
E -------------------------------------------------------|

     (ENDING)

e ---------3--3--5--6--8--5--3--1--1--0--0-----------|
B---1--1------------------------------------3--3--1--|
G----------------------------------------------------|
D----------------------------------------------------|
A----------------------------------------------------|
E ---------------------------------------------------|


e --------3--3--5--6--8--5--3---------0--------3/5-------|
B --1--1-------------------------3--3-----3--3-----------|
G--------------------------------------------------------|
D--------------------------------------------------------|
A--------------------------------------------------------|
E -------------------------------------------------------|


Girl    (INTRO & VERSES)
e----------------------|
B ----15--13--15--13---|
G----14--12--14--12----|
D----12--10--12--10----|
A----------------------|
E----------------------|

    (CHORUS & ENDING)

e --------------------------------|
B ----15--13--11--13--15--13--11--|
G ----14--12--10--12--14--12--10--|
D ----12--10--8---10--12--10--8---|
A --------------------------------|
E---------------------------------|





Comments


Popular Walk Off The Earth tabs & chords
Gang Of Rhythm Bass Tabs
Corner Of Queen Chords
Fairytale Of New York Chords
Magic Chords
Money Tree Chords
Reckoning Chords
Red Hands 2 Chords
Sunburnt Hand Chords
Reckoning Ukulele
Revo Ukulele


Song lyrics



↑ Back to top | Tablatures and chords are parodies/interpretations of the original songs. You may use it for private study, scholarship, research or language learning purposes only
© 2014 AZChords.com Contact us | Privacy policy | DMCA | Add/correct tabs | Request tabs | Top 50 tabs