» » »

Walk Off The Earth, Joan And Bobby Chords (ver.1)

Artists:  A B C D E F G H I J K L M N O P Q R S T U V W X Y Z # 

Joan And Bobby Chords (ver.1)

Walk Off The Earth Tabs
 Rating:
4.4/5 (7 votes)
Joan And Bobby lessons Tabs too difficult? Try these video lessons and learn fast
1
                
Now that we've all seen the tacky viral cover, here's a WOTE original.

**Standard Tuning, Capo 3. All chords relative to capo**

When I say D3 i mean this chord:

e---0--|
B---3--|
G---0--|
D---4--|
A---5--|
E------|


Verse
G         D        Cadd9
I used to write on cocaine
G         D            Cadd9
I used to ride with marilyn
G         D                Cadd9
I used to rock n roll with all the ones you know
          G           D      Cadd9
but now I suffer from all my sins

Chorus
D3                  Cadd9
I know I'll see you around
D3                  Cadd9
Must've been back in my hometown

Verse
G             D          Cadd9
Your love was all that I asked for
G          D             Cadd9
But it was blowin in the wind
G            D         Cadd9
Diamonds and rust turn lonelyness to lust
          G           D      Cadd9
but now I suffer from all my sins

Chorus
D3                  Cadd9
I know I'll see you around
D3            Cadd9
Maybe back in your hometown
D3          Cadd9(hold)
And if I go drive through there I know I'll see you standin with your long brown hair


play 1st verse again
play chorus again (just instrumental)


Solo: (w/ slide)

The rhythm just plays the verse (G D Cadd9)

e---/7-\5-\3-/5-/7--\3p0----/7-\5-\3-/5-/7\3p0-3----|/(just slide up the neck)
B----------------------------------------------3//--|
G---------------------------------------------------|
D---------------------------------------------------|
A---------------------------------------------------|
E---------------------------------------------------|


e---3/5-3------------/7-\5-\3-5-3------8-8-8\7/8--8\\--------------------|
B---3/5-3-3p0---0------------------5/8-8-8-8---8--8\\--------------------|
G---------2p0---0--------------------------------------------------------|
D-------------2----------------------------------------------------------|
A------------------------------------------------------------------------|
E------------------------------------------------------------------------|


e---/7-\5-\3-/5-/7\3p0-3//--8~------------|
B----------------------3//--8~--7p5-------|
G----------------------------------7-7/9~-|
D-----------------------------------------|
A-----------------------------------------|
E-----------------------------------------|


Chorus
D3                  Cadd9
I know I'll see you around
D3            Cadd9
Maybe back in your hometown
D3          Cadd9(hold)
And if I go drive through there I know I'll see you standin with your long brown hair

Verse
G             D          Cadd9
Your love was all that I asked for
G          D             Cadd9
But it was blowin in the wind
G            D         Cadd9
Diamonds and rust turn lonelyness to lust
          G           D      Cadd9
but now I suffer from all my sins


      G           D      Cadd9
now I suffer from all my sins
      G           D      Cadd9
now I suffer from all my sins
...
(repeat to end)
            
Submit corrections

comments powered by Disqus
↑ Back to top | Walk Off The Earth Chords for Joan And Bobby. Lyrics for acoustic guitar and electric guitar. 1 Tablatures and chords are parodies/interpretations of the original songs. You may use it for private study, scholarship, research or language learning purposes only