» » »

Walk Off The Earth, Ice Cream Tabs (ver.1)

Artists:  A B C D E F G H I J K L M N O P Q R S T U V W X Y Z # 

Ice Cream Tabs (ver.1)

Walk Off The Earth Tabs
 Rating:
4/5 (4 votes)
Ice Cream lessons Tabs too difficult? Try these video lessons and learn fast
1
                This band is awesome and I hope you enjoy this song!

This page includes the tab and the Chords w/lyrics.

I've included both Gianni and Ryan's parts along with the song in chord form at the bottom.

As usual, it's best to listen to the song while learning the tab to get a better of idea 
of what's going on.

---------

Contents:
Intro - Guitar I, Guitar II
Verse 1 - Guitar I, Guitar II
Chorus 1 - Guitar I, Guitar II
Bridge - Guitar I (transcribed from mandolin), Guitar II
Verse 2 - Guitar I, Guitar II
Chorus 2 - Guitar I, Guitar II

Chords over Lyrics

---------

Capo 2 - Sometimes the tab is given in real frets (5th fret = 5th fret) and in others 
it's given in relative frets (5th fret = 3rd fret from capo 2), however you should have a 
capo on the 2nd fret throughout the entire song.
Both guitars use the capo on the 2nd fret.

INTRO

Guitar I (Gianni)

|---x--x--x-12-12-12-12-12------------------------------------|
|---x--x--x---------------------------------------------------|
|---x--x--x---------------------------------------------------|
|--11-11-11-11-11-11-11-11-7---7---7--9---9---9--11---11---11-|
|---x--x--x-9--9--9--9--9--5---5---5--7---7---7--9----9----9--|
|---x--x--x---------------------------------------------------|

 ---x--x--x-12-12-12-12-12--------------------------------X---|
 ---x--x--x-----------------------------------------------X---|
 ---x--x--x-----------------------------------------------X---|
 --11-11-11-11-11-11-11-11-7---7---7--9---9---9--11-------X---|
 ---x--x--x-9--9--9--9--9--5---5---5--7---7---7--9--------X---|
 ---x--x--x-------------------------------------------*---X---|

The "*" and X's at the end refer to when he does a pick scr*pe and then percussively 
taps the body of the guitar.


Guitar 2 (Ryan)

|-------------------------------------------------------------|
|---------------------------7-----7-----9-----9-----10-----10-|
|---------------------------7-----7-----9-----9-----11-----11-|
|---------------------------7-----7-----9-----9-----11-----11-|
|---------------------------5-----5-----7-----7-----9------9--|
|-------------------------------------------------------------|


 ---x-x-x-----------------------------------------------------|
 ---x-x-x-10-10-10-10-10----7-----7-----9-----9-----10--------|
 ---x-x-x-11-11-11-11-11----7-----7-----9-----9-----11--------|
 ---x-x-x-11-11-11-11-11----7-----7-----9-----9-----11--------|
 ---x-x-x-9--9--9--9--9-----5-----5-----7-----7-----9---------|
 ---x-x-x-----------------------------------------------------|

VERSE 1

Guitar 1 (Tabbed relative to capo on 2nd fret for easier understanding)

|---------------------2---------------------------------------|
|-------1----------------3---3------0-------------------------|
|----------0---0----2------2-----------0---0------0------0----|
|-----2------2---0----------------0------0------2------0------|
|--3---------------------------2-------------3------2---------|
|-------------------------------------------------------------|

 ----------------------2-------------------------------------|
 --------1----------------3---3------3-------------1---------|
 -----------2---2----2------2-----------0---0---------0---0--|
 ------2------2---0----------------0------0------2------2----|
 ---0---------------------------2-------------3--------------|
 ------------------------------------------------------------|

 ----------------------2-------------------------------------|
 --------1----------------3---3------0-----------------------|
 -----------2---2----2------2-----------0---0------0------0--|
 ------2------2---0----------------0------0------2------0----|
 ---0---------------------------2-------------3------2-------|
 ------------------------------------------------------------|

 ----------------------2--------3--3-3-3-3-3--3-3-3-3-3--3-3-3-3-3-|
 --------1----------------3---3-1--1-1-1-1-1--1-1-1-1-1--1-1-1-1-1-|
 -----------2---2----2------2---0--0-0-0-0-0--0-0-0-0-0--0-0-0-0-0-|
 ------2------2---0-------------2--2-2-2-2-2--2-2-2-2-2--2-2-2-2-2-|
 ---0---------------------------3--3-3-3-3-3--3-3-3-3-3--3-3-3-3-3-|
 ------------------------------------------------------------------|

Note that in the video it looks like he is playing something else, but if you listen 
closely, the above is what he actually plays in the audio mix.

Guitar II (Regular tabbing)

|----------------------------------------------------------------------|
|------7-7-x-x-7-7-x-x-9-9-x-x-9-9-x-x-10-10-x-x-10-10-x-x-7-7-x-x-5-5-|
|------7-7-x-x-7-7-x-x-9-9-x-x-9-9-x-x-11-11-x-x-11-11-x-x-7-7-x-x-6-6-|
|------7-7-x-x-7-7-x-x-9-9-x-x-9-9-x-x-11-11-x-x-11-11-x-x-7-7-x-x-6-6-|
|------5-5-x-x-5-5-x-x-7-7-x-x-7-7-x-x-9--9--x-x-9--9--x-x-5-5-x-x-4-4-|
|----------------------------------------------------------------------|


 --x-x-7-7-x-x-7-7-----------------x-x-5-5-x-x-5-5-----------------|
 --x-x-7-7-x-x-7-7-x-x-9-9-x-x-9-9-x-x-5-5-x-x-5-5-x-x-7-7-x-x-7-7-|
 --x-x-7-7-x-x-7-7-x-x-9-9-x-x-9-9-x-x-6-6-x-x-6-6-x-x-7-7-x-x-7-7-|
 --x-x-9-9-x-x-9-9-x-x-9-9-x-x-9-9-x-x-7-7-x-x-7-7-x-x-7-7-x-x-7-7-|
 --x-x-9-9-x-x-9-9-x-x-7-7-x-x-7-7-x-x-7-7-x-x-7-7-x-x-5-5-x-x-5-5-|
 --x-x-7-7-x-x-7-7-----------------x-x-5-5-x-x-5-5-----------------|

 --x-x-7-7-x-x-7-7-----------------------------------------------------|
 --x-x-7-7-x-x-7-7-x-x-9-9-x-x-9-9-x-x-10-10-x-x-10-10-x-x-7-7-x-x-5-5-|
 --x-x-7-7-x-x-7-7-x-x-9-9-x-x-9-9-x-x-11-11-x-x-11-11-x-x-7-7-x-x-6-6-|
 --x-x-9-9-x-x-9-9-x-x-9-9-x-x-9-9-x-x-11-11-x-x-11-11-x-x-7-7-x-x-6-6-|
 --x-x-9-9-x-x-9-9-x-x-7-7-x-x-7-7-x-x-9--9--x-x-9--9--x-x-5-5-x-x-4-4-|
 --x-x-7-7-x-x-7-7-----------------------------------------------------|

 ---------------------------------------------------------------------|
 --x-x-7-7-x-x-7-7-x-x-9-9-x-x-9-9-7--7-7-x-x-7--7-7-x-x-7--7-7-x-x-7-|
 --x-x-7-7-x-x-7-7-x-x-9-9-x-x-9-9-7--7-7-x-x-7--7-7-x-x-7--7-7-x-x-7-|
 --x-x-7-7-x-x-7-7-x-x-9-9-x-x-9-9-7--7-7-x-x-7--7-7-x-x-7--7-7-x-x-7-|
 --x-x-5-5-x-x-5-5-x-x-7-7-x-x-7-7-5--5-5-x-x-5--5-5-x-x-5--5-5-x-x-5-|
 ---------------------------------------------------------------------|

CHORUS 1

Though I used X's here in the chorus, in reality they are just playing those chords much 
softer than the other strums.

Guitar I (Tabbed relative to 2nd Capo)



|--0-------0-0-x-x-2--2-2-x-x-0--0-0-x-x-0--0-0-x-x-|
|---0------0-0-x-x-3--3-3-x-x-1--1-1-x-x-1--1-1-x-x-|
|----0-----0-0-x-x-2--2-2-x-x-2--2-2-x-x-2--2-2-x-x-|
|-----2----2-2-x-x-0--0-0-x-x-2--2-2-x-x-2--2-2-x-x-|
|------2---2-2-x-x------------0--0-0-x-x-0--0-0-x-x-|
|-------0--0-0-x-x----------------------------------|


 --0--0-0-x-x-2--2-2-x-x-0--0-0-x-x-0--0-0-x-x-|
 --0--0-0-x-x-3--3-3-x-x-1--1-1-x-x-1--1-1-x-x-|
 --0--0-0-x-x-2--2-2-x-x-2--2-2-x-x-2--2-2-x-x-|
 --2--2-2-x-x-0--0-0-x-x-2--2-2-x-x-2--2-2-x-x-|
 --2--2-2-x-x------------0--0-0-x-x-0--0-0-x-x-|
 --0--0-0-x-x----------------------------------|

 --0--0-0-x-x-2--2-2-x-x-0---------------------|
 --0--0-0-x-x-3--3-3-x-x-1---------------------|
 --0--0-0-x-x-2--2-2-x-x-2---------------------|
 --2--2-2-x-x-0--0-0-x-x-2---------------------|
 --2--2-2-x-x------------0---------------------|
 --0--0-0-x-x----------------------------------|

 --0---------------------|
 --1---------------------|
 --0---------------------|
 --2---------------------|
 --3---------------------|
 ------------------------|

Guitar II (Tabbed Relative to Capo 2)

|--0--0-0-x-x-2--2-2-x-x-0--0-0-x-x-0--0-0-x-x-|
|--0--0-0-x-x-3--3-3-x-x-1--1-1-x-x-1--1-1-x-x-|
|--0--0-0-x-x-2--2-2-x-x-2--2-2-x-x-2--2-2-x-x-|
|--2--2-2-x-x-0--0-0-x-x-2--2-2-x-x-2--2-2-x-x-|
|--2--2-2-x-x------------0--0-0-x-x-0--0-0-x-x-|
|--0--0-0-x-x----------------------------------|

 --0--0-0-x-x-2--2-2-x-x-0--0-0-x-x-0--0-0-x-x-|
 --0--0-0-x-x-3--3-3-x-x-1--1-1-x-x-1--1-1-x-x-|
 --0--0-0-x-x-2--2-2-x-x-2--2-2-x-x-2--2-2-x-x-|
 --2--2-2-x-x-0--0-0-x-x-2--2-2-x-x-2--2-2-x-x-|
 --2--2-2-x-x------------0--0-0-x-x-0--0-0-x-x-|
 --0--0-0-x-x----------------------------------|

 --0--0-0-x-x-2--2-2-x-x-0---------------------|
 --0--0-0-x-x-3--3-3-x-x-1---------------------|
 --0--0-0-x-x-2--2-2-x-x-2---------------------|
 --2--2-2-x-x-0--0-0-x-x-2---------------------|
 --2--2-2-x-x------------0---------------------|
 --0--0-0-x-x----------------------------------|


 --0---------------------0---------------------|
 --1---------------------0---------------------|
 --0---------------------0---------------------|
 --2---------------------2---------------------|
 --3---------------------2---------------------|
 ------------------------0---------------------|

BRIDGE

Guitar I (Relative to Capo 2) - Transcribed into guitar from mandolin

|--------------------------------------------------------|
|-------8--7--5---------------------------5---5---7------|
|----------------7--5--4------4-5---4h5h7---5---5--------|
|------------------------5-5------5----------------------|
|-----------------------------------------------------5--|
|--------------------------------------------------------|

Guitar II (Relative to Capo 2)

   G     Am    D            G    Am    D
|--3-----------2-----2--------3--------2--|
|-----3--1--------3----3---------1-----3--|
|-----------2------------2----------2--2--|
|--------------0-----------------------0--|
|--------0-----------------------0--------|
|--3------------------------3-------------|

VERSE 2

Guitar I (Relative to Capo 2)

|------------------------------------------------------------|
|------------------------------------------------------------|
|------------------------------------------------------------|
|------------------------------------------------------------|
|------------------------------------------------------------|
|------------------------------------------------------------|


 ----------------------2-------------------------------------|
 --------1----------------3---3------3-------------1---------|
 -----------2---2----2------2-----------0---0---------0---0--|
 ------2------2---0----------------0------0------2------2----|
 ---0---------------------------2-------------3--------------|
 ------------------------------------------------------------|

 ----------------------2-------------------------------------|
 --------1----------------3---3------0-----------------------|
 -----------2---2----2------2-----------0---0------0------0--|
 ------2------2---0----------------0------0------2------0----|
 ---0---------------------------2-------------3------2-------|
 ------------------------------------------------------------|

 ----------------------2--------3--3-3-3-3-3--3-3-3-3-3--3-3-3-3-3-|
 --------1----------------3---3-1--1-1-1-1-1--1-1-1-1-1--1-1-1-1-1-|
 -----------2---2----2------2---0--0-0-0-0-0--0-0-0-0-0--0-0-0-0-0-|
 ------2------2---0-------------2--2-2-2-2-2--2-2-2-2-2--2-2-2-2-2-|
 ---0---------------------------3--3-3-3-3-3--3-3-3-3-3--3-3-3-3-3-|
 ------------------------------------------------------------------|

Guitar II (Regular tabbing)

|----------------------------------------------------------------------|
|------7-7-x-x-7-7-x-x-9-9-x-x-9-9-x-x-10-10-x-x-10-10-x-x-7-7-x-x-5-5-|
|------7-7-x-x-7-7-x-x-9-9-x-x-9-9-x-x-11-11-x-x-11-11-x-x-7-7-x-x-6-6-|
|------7-7-x-x-7-7-x-x-9-9-x-x-9-9-x-x-11-11-x-x-11-11-x-x-7-7-x-x-6-6-|
|------5-5-x-x-5-5-x-x-7-7-x-x-7-7-x-x-9--9--x-x-9--9--x-x-5-5-x-x-4-4-|
|----------------------------------------------------------------------|


 --x-x-7-7-x-x-7-7-----------------x-x-5-5-x-x-5-5-----------------|
 --x-x-7-7-x-x-7-7-x-x-9-9-x-x-9-9-x-x-5-5-x-x-5-5-x-x-7-7-x-x-7-7-|
 --x-x-7-7-x-x-7-7-x-x-9-9-x-x-9-9-x-x-6-6-x-x-6-6-x-x-7-7-x-x-7-7-|
 --x-x-9-9-x-x-9-9-x-x-9-9-x-x-9-9-x-x-7-7-x-x-7-7-x-x-7-7-x-x-7-7-|
 --x-x-9-9-x-x-9-9-x-x-7-7-x-x-7-7-x-x-7-7-x-x-7-7-x-x-5-5-x-x-5-5-|
 --x-x-7-7-x-x-7-7-----------------x-x-5-5-x-x-5-5-----------------|

 --x-x-7-7-x-x-7-7-----------------------------------------------------|
 --x-x-7-7-x-x-7-7-x-x-9-9-x-x-9-9-x-x-10-10-x-x-10-10-x-x-7-7-x-x-5-5-|
 --x-x-7-7-x-x-7-7-x-x-9-9-x-x-9-9-x-x-11-11-x-x-11-11-x-x-7-7-x-x-6-6-|
 --x-x-9-9-x-x-9-9-x-x-9-9-x-x-9-9-x-x-11-11-x-x-11-11-x-x-7-7-x-x-6-6-|
 --x-x-9-9-x-x-9-9-x-x-7-7-x-x-7-7-x-x-9--9--x-x-9--9--x-x-5-5-x-x-4-4-|
 --x-x-7-7-x-x-7-7-----------------------------------------------------|

 ---------------------------------------------------------------------|
 --x-x-7-7-x-x-7-7-x-x-9-9-x-x-9-9-7--7-7-x-x-7--7-7-x-x-7--7-7-x-x-7-|
 --x-x-7-7-x-x-7-7-x-x-9-9-x-x-9-9-7--7-7-x-x-7--7-7-x-x-7--7-7-x-x-7-|
 --x-x-7-7-x-x-7-7-x-x-9-9-x-x-9-9-7--7-7-x-x-7--7-7-x-x-7--7-7-x-x-7-|
 --x-x-5-5-x-x-5-5-x-x-7-7-x-x-7-7-5--5-5-x-x-5--5-5-x-x-5--5-5-x-x-5-|
 ---------------------------------------------------------------------|

CHORUS 2 - Same as Chorus 1 except Gianni adds in a lick at the end:

Guitar I (Relative to Capo 2)

|----------------|
|----------------|
|----------------|
|-----5-7-b7-5---|
|--/7----------7-|
|----------------|

The bend there is 1/4 step.

CHORDS (Relative to Capo 2)

C    D
Your love
Em             C   Bm
Is better than ice cream.
Am          D        G              C
Better than anything else that I've tried
Am       D
Oh       love
Em             C   Bm
Is better than morphine
C        D                 C
Everyone here knows how to fly
       Em   D   Am
It's a long way down
       Em   D   Am
It's a long way down
       Em   D
It's a long way
Am                         C
Down to the place where we started from.
Em

G Am D     G Am D


C    D
Your love
Em               C   Bm
It's better than ice cream.
Am          D        G              C
Better than anything else that I've tried
Am   D
Your love
Em             C   Bm
Is better than morphine
C        D            C
Everyone knows how to fly
       Em   D   Am
It's a long way down
       Em   D   Am
It's a long way down
       Em   D
It's a long way
Am                         C
Down to the place where we started from.
Em
            
Submit corrections

comments powered by Disqus
↑ Back to top | Walk Off The Earth Tabs for Ice Cream. Lyrics for acoustic guitar and electric guitar. 1 Tablatures and chords are parodies/interpretations of the original songs. You may use it for private study, scholarship, research or language learning purposes only