» » »

We Cant Be Beat Tabs (ver.1)

Artists:  A B C D E F G H I J K L M N O P Q R S T U V W X Y Z # 

We Cant Be Beat Tabs (ver.1)

Walkmen
Rating:
0/5 (0 votes)

Hard to play? Try these video lessons and learn fast.
                Main riff:

Play this 4x

E|-----------------------|
B|-----10----------------|
G|--------------10-------|
D|---------10--------10--|
A|-----------------------|
E|-----------------------|

Then this 4x:

E|--------------------------|
B|-----8-----------------8--|
G|--------------9-----------|
D|---------9--------9-------|
A|--------------------------|
E|--------------------------|

"Oh golden dreams...":


E|-------------------------------------|
B|-----6-----------------6-------------|
G|--------------7----------------7-----|
D|---------7--------7------7--------7--|
A|-------------------------------------|
E|-------------------------------------|

E|-------------------------------------|
B|-----3-----------------3-------------|
G|--------------4----------------4-----|
D|---------5--------5------5--------5--|
A|-------------------------------------|
E|-------------------------------------|

Then this little bridge with two chords:

E|-----3-----|
B|--1--0-----|
G|--0--0-----|
D|--2--0-----|
A|--3--2-----|
E|-----3-----|

"If you want my eyes...":

Again 4x each

E|-----------------------|
B|-----10----------------|
G|--------------10-------|
D|---------10--------10--|
A|-----------------------|
E|-----------------------|

E|-----------------------|
B|-----12----------------|
G|--------------12-------|
D|---------12--------12--|
A|-----------------------|
E|-----------------------|

"We'll never leave/We can't be beat":

E|--5--3-----3--------|
B|--6--0--1--0--------|
G|--7--0--0--0--------|
D|--7--0--2--0--------|
A|--5--2--3--2--------|
E|-----3-----3--------|
            
Hard to play? Try these video lessons and learn fast. | Correct




comments powered by Disqus
↑ Back to top | Tablatures and chords are parodies/interpretations of the original songs. You may use it for private study, scholarship, research or language learning purposes only