» » »

Walkmen, French Vacation Tabs (ver.1)

Artists:  A B C D E F G H I J K L M N O P Q R S T U V W X Y Z # 

French Vacation Tabs (ver.1)

Walkmen Tabs
 Rating:
4/5 (4 votes)
French Vacation lessons Tabs too difficult? Try these video lessons and learn fast
1
                Band: The Walkmen
Tuning: Standard 
Level: Novic

Opening (0:00, 1:29)
e|-9-9-9-9-9-9-9-9-9-11-11-11-11-11-11-11-11-11-|
B|----------------------------------------------|
G|----------------------------------------------|
D|----------------------------------------------|  x3
A|----------------------------------------------|
E|----------------------------------------------|

(0:12)
e|---11-11-11-11-11-11-11-11-9-9-9-9-9-9-9-9-9--|
B|----------------------------------------------|
G|-11---------------------------------------9---|
D|----------------------------------------------|   x1
A|----------------------------------------------|
E|----------------------------------------------|

(0:54, 1:48) These are the chords of the notes he plays.
e|---------------------------4--------------------|
B|-9------7-----9------7-----4-----7-----7-----9--|
G|-9------8-----9------8-----4-----8-----8-----9--|
D|-11-----9-----11-----9-----6-----9-----9-----11-|
A|------------------------------------------------|
E|------------------------------------------------|

(1:11, 2:22)
e|----------------------------------------------------|
B|--10---10---10---10---10-----9----9---9---9---9-----|
G|----7----7----7----7----7-----6----6---6---6---6----|
D|----------------------------------------------------|
A|-9----9----9----9----9----9-8----8---8---8---8------|
E|----------------------------------------------------|

e|--------------------------------------------------|
B|----9---9---9---9---9-----7---7---7---7---7--\----|
G|-----6---6---6---6---6-----5---5---5---5----------|
D|--------------------------------------------------|
A|-8-7---7---7---7---7---7-6---6---6---6---6--------|
E|--------------------------------------------------|

(2:22)
e|----------------------------------------------------|
B|--10---10---10---10---10-----9----9---9---9---9-----|
G|----7----7----7----7----7-----6----6---6---6---6----|
D|----------------------------------------------------|
A|-9----9----9----9----9----9-8----8---8---8---8------|
E|----------------------------------------------------|

e|-----------------------------------------------|
B|----9---9---9---9---9-----7---7---7---7---7----|
G|-----6---6---6---6---6-----5---5---5---5-------|
D|-----------------------------------------------|
A|-8-7---7---7---7---7---7-6---6---6---6---6-----|
E|-----------------------------------------------|

e|-----------------------------|
B|----7---7---7---7---7\10-----|
G|-----4---4---4---4-----------|
D|-----------------------------|
A|-6-5---5---5---5---5---------|
E|-----------------------------|

(2:45)
e|---------------------------------------------|
B|---------------------------------------------|
G|--7---7---7---7---7-----6---6---6---6---6----|
D|---5---5---5---5---5-----4---4---4---4---4---|
A|---------------------------------------------|
E|-7---7---7---7---7---7-6---6---6---6---6-----|

e|------------------------------4-----4-4-4\--|
B|------------------------------x-----x-x-x---|
G|----6---6---6---6---6------4--4---4-4-4-4\--|
D|-----4---4---4---4---4-----x--x---x-x-x-x---|
A|---------------------------x--x---x-x-x-x---|
E|-6-5---5---5---5---5---5-4-4--4-4-4-4-4-4\--|

(3:02)
e|-------------------------------------------------------------------|
B|--9-9-9-9-7-7-7-7-9-9-9-9-7-7-7-7----------7-7-7-7-7-7-7-7-9-9-9-9-|
G|-9-9-9-9-8-8-8-8-9-9-9-9-8-8-8-8--8-8-8-8-8-8-8-8-8-8-8-8-9-9-9-9--|
D|---------------------------------9-9-9-9---------------------------|
A|-------------------------------------------------------------------|
E|-------------------------------------------------------------------|
            
Submit corrections

comments powered by Disqus
↑ Back to top | Walkmen Tabs for French Vacation. Lyrics for acoustic guitar and electric guitar. 1 Tablatures and chords are parodies/interpretations of the original songs. You may use it for private study, scholarship, research or language learning purposes only