>
 >
Raped, Pillaged, And Gutted

Raped, Pillaged, And Gutted Guitar Tabs

Waking The Cadaver - Raped, Pillaged, And Gutted chords, tabs, tablatures, lyrics

Guitar lessons | Add/correct | Request | Top 50 tabs Artists:  A B C D E F G H I J K L M N O P Q R S T U V W X Y Z 0-9

Raped, Pillaged, And Gutted Guitar Tabs – Waking The Cadaver

CD, Sheet music, Poster

Do you like Raped, Pillaged, And Gutted? Share with your friends now
Tabs


Gtr I (C G C F A D) - 'drop C'

    Q=140
   6/4
    Gtr I
    |-3-| |-3-| |-3-| |----3----| |-3-| |----3----| |-3-| |----3----| |-3-|
    S S S S S S S S S S S S S S S S S S S S S S S S S S S S S S S S S S S S
||--------------------------------------------------------------------------|
||o-------------------------------------------------------------------------|
||--------------------------------------------------------------------------|
||--------------------6-6-6-6-6-6-5-5-5-------------------------------------|
||o-5-5-5-6-6-6-7-7-7-------------------6-6-6-6-6-6-7-7-7-3-3-3-3-3-3-2-2-2-|
||--------------------------------------------------------------------------|


  |-3-| |-3-| |-3-| |----3----| |-3-| |----3----| |-3-|
  S S S S S S S S S S S S S S S S S S S S S S S S S S S E E E
|----------------------------------------------------------------||
|---------------------------------------------------------------o||
|----------------------------------------------------------------||
|-------------------6-6-6-6-6-6-5-5-5----------------------------||
|-5-5-5-6-6-6-7-7-7-------------------6-6-6-6-6-6-7-7-7-7-6-5---o||
|-------------------------------------------------------7-6-5----||


    Q=100
   4/4
      PM------------|
    E E E E S S E E E  4x
||---------------------||-|
||o-------------------o||-|
||---------------------||-|
||--4------------------||-|
||o-2-1-0-1-3-1-0-1-0-o||-|
||----1-0-1-3-1-0-1-0--||-|


    Q=150     Q=100
                    PM------------|                 TPPM----------|
    T T T T T T T T S S S S S S S S S S S S  4x     E E E E E E E E   4x
||-------------------------------------------||-||--------------------||
||o-----------------------------------------o||-||o------------------o||
||-------------------------------------------||-||--------------------||
||-------------------------------------------||-||--------------------||
||o-3-3-3-3-3-3-3-3-------------------------o||-||o-3-1-0-1-0-1-0-1--o||
||------------------1-0-1-0-1-0-1-0-1-0-1-0--||-||----1-0-1-0-1-0-1---||


    PM|
                                 |-3-|            |-3-|
    E E  E    E E E E E   S e  S S S S S S S e  S S S S S S  4x
||----------------------|------------------------------------||
||o---------------------|-----------------------------------o||
||----------------------|------------------------------------||
||----------------------|------------------------------------||
||o-1-0-<3>b4-1-0-------|---0--0-1-1-1-0-----0--0-1-1-1-0---o||
||--1-0-------1-0-------|---0--0-1-1-1-0-----0--0-1-1-1-0----||


  Q=130
     6/4
      E E E E E E S S E E E E E  4x
|-||-----------------------------||
|-||o---------------------------o||
|-||-----------------------------||
|-||-----------------------------||
|-||o-6-5-4-5-4-3-4-3-3-1-3-1-0-o||
|-||--6-5-4-5-4-3-4-3-3-1-3-1-0--||


    Q=80
    E E E E E E S S E E E E E
||-----------------------------||-|
||o---------------------------o||-|
||-----------------------------||-|
||-----------------------------||-|
||o-6-5-4-5-4-3-4-3-3-1-3-1-0-o||-|
||--6-5-4-5-4-3-4-3-3-1-3-1-0--||-|


    Q=160
    PM----------------------------------------------|
    S S S S S S S S S S S S S S S S S S  S S S  S S S   4x
||------------------------------------------------------||
||o----------------------------------------------------o||
||------------------------------------------------------||
||--------------------------8-7-5-------10-8-7----------||
||o-8-7-5-------6-5-3-------------8-7-5--------10-8-7--o||
||--------8-7-5-------6-5-3-----------------------------||


  Q=160
 4/4
  W          +W           +W           +W           +W           +W
|----------|------------|------------|------------|------------|--------|
|----------|------------|------------|------------|------------|--------|
|----------|------------|------------|------------|------------|--------|
|----------|------------|------------|------------|------------|--------|
|-0--------|-(0)--------|-(0)--------|-(0)--------|-(0)--------|-(0)----|
|-0--------|-(0)--------|-(0)--------|-(0)--------|-(0)--------|-(0)----|


    Q=130
   4/4
    E S S H    +E  E   +E  E +E  E +E  S S Q   8x
||-------------------|-------------------------||
||o------------------|------------------------o||
||-------------------|-------------------------||
||-------------------|-------------------------||
||o-0-0-0-0----(0)-0-|-(0)-0-(0)-0-(0)-0-0-0--o||
||--0-0-0-0----(0)-0-|-(0)-0-(0)-0-(0)-0-0-0---||


    Q=180
    S S E S S E S S E Q    S S E S S E S S E Q
||-----------------------|----------------------|
||o----------------------|----------------------|
||-----------------------|----------------------|
||-----------------------|----------------------|
||o-7-7-7-6-6-6-5-5-5-4--|-5-5-5-6-6-6-5-5-5-3--|
||--7-7-7-6-6-6-5-5-5-4--|-5-5-5-6-6-6-5-5-5-3--|


  S S E S S E S S E Q    S S E S S E S S E  Q        4x
|----------------------|-----------------------------||
|----------------------|----------------------------o||
|----------------------|-----------------------------||
|----------------------|-----------------------------||
|-7-7-7-6-6-6-5-5-5-4--|-5-5-5-6-6-6-5-5-5----------o||
|-7-7-7-6-6-6-5-5-5-4--|-5-5-5-6-6-6-5-5-5-<3>b5-----||


    Q=100                                 Q=80
                                          PM----------------------|
    |-3-| |-3-| |-3-| |-3-| |-3-|         |-3-| |-3-| |-3-| |-3-| |-3-|
    S S S S S S E E E E E E E E E  4x     S S S S S S E E E E E E E E E  4x
||---------------------------------||-||---------------------------------||
||o-------------------------------o||-||o-------------------------------o||
||---------------------------------||-||---------------------------------||
||---------------------------------||-||---------------------------------||
||o-1-1-1-1-1-1-0-1-3-4-3-1-3-----o||-||o-1-1-1-1-1-1-0-1-0-1-0-1-0-----o||
||--1-1-1-1-1-1-0-1-3-4-3-1-3------||-||--1-1-1-1-1-1-0-1-0-1-0-1-0------||


    Q=100
    T T T T T T T T T T T T T T T T T T T T T T T T T T T T T T T T  4x
||-------------------------------------------------------------------||
||o-----------------------------------------------------------------o||
||-------------------------------------------------------------------||
||--4-4-4-4-3-3-----3-3-3-3-2-2-----2-2-2-2-1-1-----1-1-1-1-0-0------||
||o-------------4-4-------------3-3-------------2-2-------------1-1-o||
||-------------------------------------------------------------------||


    T T T T T T T T T T T T T T T T T T T T T T T T T T T T T T T T  4x
||-------------------------------------------------------------------||
||o-----------------------------------------------------------------o||
||-------------------------------------------------------------------||
||--4-4-4-4-3-3-----3-3-3-3-2-2-----2-2-2-2-1-1-----1-1-1-1-0-0------||
||o-------------4-4-------------3-3-------------2-2-------------1-1-o||
||-------------------------------------------------------------------||


    T T S T T S T T S T T S T T S T T S T T S T T S  4x
||---------------------------------------------------||
||o-------------------------------------------------o||
||---------------------------------------------------||
||---------------------------------------------------||
||o-0-0-0-0-0-0-0-0-0-0-0-0-0-0-0-0-0-0-0-0-0-0-0-0-o||
||--0-0-0-0-0-0-0-0-0-0-0-0-0-0-0-0-0-0-0-0-0-0-0-0--||



Duration Legend
---------------
W - whole; H - half; Q - quarter; E - 8th; S - 16th; T - 32nd; X - 64th; a - acciaccatura
+ - note tied to previous; . - note dotted; .. - note double dotted
Uncapitalized letters represent notes that are staccato (1/2 duration)
Irregular groupings are notated above the duration line
Duration letters will always appear directly above the note/fret number it represents the
duration for.  Duration letters with no fret number below them represent rests.  Multi-
bar rests are notated in the form Wxn, where n is the number of bars to rest for.  Low
melody durations appear below the staff

Tablature Legend
----------------
 h   - hammer-on
 p   - pull-off
 b   - bend
 pb  - pre-bend
 r   - bend release (if no number after the r, then release immediately)
 /\  - slide into or out of (from/to "nowhere")
 s   - legato slide
 S   - shift slide
 - natural harmonic
[n]  - artificial harmonic
n(n) - tapped harmonic
 ~   - vibrato
 tr  - trill
 T   - tap
 TP  - trem. picking
 PM  - palm muting
\n/  - tremolo bar dip; n = amount to dip
 \n  - tremolo bar down
 n/  - tremolo bar up
/n\  - tremolo bar inverted dip
 =   - hold bend; also acts as connecting device for hammers/pulls
 <> - volume swell (louder/softer)
 x   - on rhythm slash represents muted slash
 o   - on rhythm slash represents single note slash

Misc Legend
-----------
 |  - bar
||  - double bar
||o - repeat start
o|| - repeat end
*|  - double bar (ending)
 :  - bar (freetime)
 $  - Segno
 &  - Coda
Tempo markers -  = BPM(8/16=s8/s16), where s8 = swing 8ths, s16 = swing 16ths





Comments


Popular Waking The Cadaver tabs & chords
Blood Splattered Satisfaction Bass Tabs
Bloodspattered Satisfaction Bass Tabs
Chased Through The Woods Bass Tabs
Blood Splattered Satisfaction Tabs
Bludgeoned With A Tire Iron Tabs
Chased Through The Woods Tabs
Chased Through The Woods 1 Tabs
Chased Through The Woods 2 Tabs
Chased Through The Woods 3 Tabs
I Know The Insides Of Women Tabs


Song lyrics



↑ Back to top | Tablatures and chords are parodies/interpretations of the original songs. You may use it for private study, scholarship, research or language learning purposes only
© 2014 AZChords.com Contact us | Privacy policy | DMCA | Add/correct tabs | Request tabs | Top 50 tabs