» » »

Waking The Cadaver, I Know The Insides Of Women Tabs (ver.1)

Artists:  A B C D E F G H I J K L M N O P Q R S T U V W X Y Z # 

I Know The Insides Of Women Tabs (ver.1)

Waking The Cadaver Tabs
 Rating:
4/5 (5 votes)
I Know The Insides Of Women lessons Tabs too difficult? Try these video lessons and learn fast
                I know for a fact this is right because the guitarist in waking the cadaver sent me the 
will also be posting chased through the woods by a rapist and bloodspattered 
soon.


D|-------------------------------------------|
A|-------------------------------------------|
F|----------------------------------|REPEAT--| 4X
C|-------------------------------------------|
G|-----4444----3333--------------------------|
C|-5555----4444----2222222233223322----------|
PM ------------------------------------------|

D|-----------------------------------|
A|-----------------------------------|
F|--------------------------|REPEAT--| 4X
C|-5-6-4-5---------------------------|
G|-5-4-4-3---------------------------|
C|-5---4---2222222233223322----------|
PM ----------------------------------|

D|-----------------------------------|
A|-----------------------------------|
F|-----------------------------------|
C|-5-6-4-5--2--2--2-3-2-3-2-|REPEAT--| 4X
G|-5-4-4-3--2--2--2-3-2-3-2----------|
C|-5---4----2--2--2-3-2-3-2----------|
pm ----------------------------------|

D|--------------|
A|--------------|
F|--------------|
C|-000-0-0-00---|REPEAT HOWEVER MANY TIMES
G|-000-0-0-00---|IM TO LAZY TO COUNT
C|-000-0-0-00---|
PM --- - - -----|

D|---------------------------------|
A|---------------------------------|
F|---------------------------------|
C|-5------4-------1-4-1-0-|REPEAT--| 4X
G|-5-4444-4-3333--1-4-1-0----------|
C|-5------4-------1-4-1-0----------|
PM - - ----------------------------|

D|--------------------------------------------|
A|--------------------------------------------|
F|-----------------------------------|REPEAT--| 4X
C|-0-1-4-1-6-1-4-1-0-1-4-1-0-1-4-1-0----------|
G|-0-1-4-1-4-1-4-1-0-1-4-1-0-1-4-1-0----------|
C|-0-1-4-1---1-4-1-0-1-4-1-0-1-4-1-0----------|
pm ------- -----------------------------------|

D|------------------------------------------|
A|------------------------------------------|
F|---------------------------------|REPEAT--| 4X
C|-0-2-3-4..5-0-4-5-0-6..7-0-6-7-8..9-------|
G|-0-2-3-2..3-0-4-5-0-4..5-0-6-7-6..7-------|
C|-0-2-3-----0-4-5-0-----0-6-7--------------|

D|-----------------------------------------------|
A|-----------------------------------------------|
F|-----------------------------------------------|REPEAT 4X
C|-0-1-3-4-3-1-0-1-0-1-3-4-3-1-0-1-000---000-000-|
G|-0-1-3-4-3-1-0-1-0-1-3-4-3-1-0-1-000---000-000-|
C|-0-1-3-4-3-1-0-1-0-1-3-4-3-1-0-1-000---000-000-|

D|----------------------------------------------------------------|
A|----------------------------------------------------------------|
F|----------------------------------------------------------------|
C|-4-3-1-0-4-3-1-0-4-3-1-0-4-3-1-0-4-3-1-0-4-3-1-0--5------4------|REPEAT 4X
G|-4-3-1-0-4-3-1-0-4-3-1-0-4-3-1-0-4-3-1-0-4-3-1-0--5-4444-4-3333-|
C|-4-3-1-0-4-3-1-0-4-3-1-0-4-3-1-0-4-3-1-0-4-3-1-0--5------4------|
            
Submit corrections

comments powered by Disqus
↑ Back to top | Waking The Cadaver Tabs for I Know The Insides Of Women. Lyrics for acoustic guitar and electric guitar. Tablatures and chords are parodies/interpretations of the original songs. You may use it for private study, scholarship, research or language learning purposes only