» » »

Blood Splattered Satisfaction Tabs (ver.1)

Artists:  A B C D E F G H I J K L M N O P Q R S T U V W X Y Z # 

Blood Splattered Satisfaction Tabs (ver.1)

Waking The Cadaver
Rating:
5/5 (2 votes)

Hard to play? Try these video lessons and learn fast.
                
BLOOD SPLATTERED SATISFACTION
As recorded by Waking The Cadaver
(From the 2007 Album PERVERSE RECOLLECTIONS OF A NECROMANGLER)

        

Words and Music by Waking The Cadaver

Gtr I (C G C F A D) - 'Left Channel'
Gtr II (C G C F A D) - 'Right Channel'

 Intro
  Deathcore Q=96
  N.C.                                           E5F5E5F5
 4/4
  Gtrs I, II
               TPTPTPTPTPTPTPTPTPTP  TPTPTPTPTPTPPM----|
  W            E E E E E E S S S S   E E E E E E S S S S
|----------||----------------------|----------------------||
|----------||o---------------------|---------------------o||
|----------||----------------------|----------------------||
|----------||----------------------|----------------------||
|----------||o---------------------|-------------2-3-2-3-o||
|----------||--0-8-5-7-5-3-2-3-2-3-|-0-8-5-7-5-3-2-3-2-3--||


   "Abduction is the way.."
    Slower Q=82
    D5BbG5A5G5F5E5F5E5F5  D5BbG5A5G5F5E5F5E5F5    D5
    PM--------------------------------------------|
    E E E E E E S S S S   E E E E E E S S S S     E H..
||----------------------|----------------------||----------|
||o---------------------|---------------------o||----------|
||----------------------|----------------------||----------|
||----------------------|----------------------||----------|
||o-0-8-5-7-5-3-2-3-2-3-|-0-8-5-7-5-3-2-3-2-3-o||-0--------|
||--0-8-5-7-5-3-2-3-2-3-|-0-8-5-7-5-3-2-3-2-3--||-0--------|


    Slower Q=74
    D5BbG5A5G5F5E5F5E5F5  D5BbG5A5G5F5E5F5E5F5
    PM--------------------------------------|
    E E E E E E S S S S   E E E E E E S S S S
||----------------------|----------------------||
||o---------------------|---------------------o||
||----------------------|----------------------||
||----------------------|----------------------||
||o-0-8-5-7-5-3-2-3-2-3-|-0-8-5-7-5-3-2-3-2-3-o||
||--0-8-5-7-5-3-2-3-2-3-|-0-8-5-7-5-3-2-3-2-3--||


  Faster Q=82
  D#D5N.D#D5N.D#D5N.D#D5N.C.D#D5N.C.D#D5N.C.D#D5N.C.D#D5N.C.
  Gtr I
  PM| TPPM| TPPM| TPPM| TP  PM| TP  PM| TP  PM| TP  PM| TP
  S S E S S E S S E S S E   S S E   S S E   S S E   S S E
|-------------------------|--------------------------------||
|-------------------------|--------------------------------||
|-------------------------|--------------------------------||
|-------------------------|--------------------------------||
|-1-0-4-1-0-4-1-0-3-1-0-3-|-1-0-4---1-0-4---1-0-3---1-0-3--||
|-1-0---1-0---1-0---1-0---|-1-0-----1-0-----1-0-----1-0----||
|
| Gtr II
| PM|   PM|   PM| TPPM|     PM| TP  PM| TP  PM| TP  PM| TP
| S S E S S E S S E S S E   S S S S S S S S S S S S S S E
|-------------------------|--------------------------------||
|-------------------------|--------------------------------||
|-------------------------|--------------------------------||
|-------------------------|--------------------------------||
|-1-0---1-0---1-0-3-1-0---|-1-0-4---1-0-4---1-0-3---1-0-3--||
|-1-0---1-0---1-0---1-0---|-1-0-----1-0-----1-0-----1-0----||


   "Puking all over the.."
    Faster Q=90
    N.C.
    TPTPTPTPTPTPTPTPTPTP  TPTPTPTPTPTPTPTPTPTP
    E E E E E E S S S S   E E E E E E S S S S
||----------------------|----------------------||
||o---------------------|---------------------o||
||----------------------|----------------------||
||----------------------|----------------------||
||o---7-6---------------|---7-6---------------o||
||--4-----9-7-6-4-6-4-6-|-4-----9-7-6-4-6-4-6--||
|
|   TPTPTPTPTPTPTPTPTPTP  TPTPTPTPTPTPTPTPTPTP
|   E E E E E E S S S S   E E E E E E S S S S
||----------------------|----------------------||
||o---------------------|---------------------o||
||----------------------|----------------------||
||----------------------|----------------------||
||o---3-2---------------|---3-2---------------o||
||--1-----4-3-2-1-2-1-2-|-1-----4-3-2-1-2-1-2--||


  N.C.
  TP TP TP TP TP TPTP TPTP TP  TP TP TP TP TP TPTP TPTP TP
  E  E  E  E  E  E S  S S  S   E  E  E  E  E  E S  S S  S
|----------------------------|----------------------------|
|----------------------------|----------------------------|
|----------------------------|----------------------------|
|----------------------------|----------------------------|
|---11-10--------------------|---11-10--------------------|
|-8-------13-11-10-8-10-8-10-|-8-------13-11-10-8-10-8-10-|
|
| TP TP TP TP TP TPTP TPTP TP  TP TP TP TP TP TPTP TPTP TP
| E  E  E  E  E  E S  S S  S   E  E  E  E  E  E S  S S  S
|----------------------------|----------------------------|
|----------------------------|----------------------------|
|----------------------------|----------------------------|
|----2--1--------------------|----2--1--------------------|
|----------------------------|----------------------------|
|-1--------4--3--2-1--2-1--2-|-1--------4--3--2-1--2-1--2-|


                                                  H.=H
  N.C.                                            F5
  TP TP TP TP TP TPTP TPTP TP  TP TP TP TP TP TPPM|
  E  E  E  E  E  E S  S S  S   E  E  E  E  E  E E E
|----------------------------|----------------------|
|----------------------------|----------------------|
|----------------------------|----------------------|
|----------------------------|----------------------|
|---11-10--------------------|---11-10------------3-|
|-8-------13-11-10-8-10-8-10-|-8-------13-11-10---3-|
|
| TP TP TP TP TP TPTP TPTP TP  TP TP TP TP TP TPPM|
| E  E  E  E  E  E S  S S  S   E  E  E  E  E  E E E
|----------------------------|----------------------|
|----------------------------|----------------------|
|----------------------------|----------------------|
|----2--1--------------------|----2--1--------------|
|----------------------------|--------------------3-|
|-1--------4--3--2-1--2-1--2-|-1--------4--3--2---3-|


  Slower Q=74
  D#D5
               5/4
  PM|
  E E H.        +W         +Q
|-------------|-----------------||
|-------------|-----------------||
|-------------|-----------------||
|-------------|-----------------||
|-1-0-0-------|-(0)--------(0)--||
|-1-0-0-------|-(0)--------(0)--||
|
| PM|
| E E H.        +W         +Q
|-------------|-----------------||
|-------------|-----------------||
|-------------|-----------------||
|-------------|-----------------||
|-1-0-0-------|-(0)--------(0)--||
|-1-0-0-------|-(0)--------(0)--||


   *Breakdown*
    D5
   4/4
    Gtrs I, II
    PM--------------------|        PM--------------------|
    T T S T T S T T S T T S H      T T S T T S T T S T T S H
||-------------------------------|-------------------------------||
||o------------------------------|------------------------------o||
||-------------------------------|-------------------------------||
||-------------------------------|-------------------------------||
||o-0-0-0-0-0-0-0-0-0-0-0-0------|-0-0-0-0-0-0-0-0-0-0-0-0------o||
||--0-0-0-0-0-0-0-0-0-0-0-0------|-0-0-0-0-0-0-0-0-0-0-0-0-------||


  D5                                      N.C.
  Gtr I
  PM--------------------|
  T T S T T S T T S T T S H
|-------------------------------------------------------|
|-------------------------------------------------------|
|-------------------------------------------------------|
|-------------------------------------------------------|
|-0-0-0-0-0-0-0-0-0-0-0-0-------------------------------|
|-0-0-0-0-0-0-0-0-0-0-0-0-------------------------------|
|
| Gtr II
| PM------------------------------------|            ~~~
| T T S T T S T T S T T S T T T T T T T T S     +S   E
|-------------------------------------------------------|
|-------------------------------------------------------|
|-------------------------------------------------------|
|-----------------------------------------2b2.5r(2)-----|
|-0-0-0-0-0-0-0-0-0-0-0-0-0-0-0-0-0-0-0-0-----------[3]-|
|-0-0-0-0-0-0-0-0-0-0-0-0-0-0-0-0-0-0-0-0---------------|


  D5                                      N.C.
  PM--------------------|
  T T S T T S T T S T T S H
|------------------------------------------------|
|------------------------------------------------|
|------------------------------------------------|
|------------------------------------------------|
|-0-0-0-0-0-0-0-0-0-0-0-0------------------------|
|-0-0-0-0-0-0-0-0-0-0-0-0------------------------|
|
| PM------------------------------------|    ~~~
| T T S T T S T T S T T S T T T T T T T T E  E
|------------------------------------------------|
|------------------------------------------------|
|------------------------------------------------|
|-------------------------------------------[3]--|
|-0-0-0-0-0-0-0-0-0-0-0-0-0-0-0-0-0-0-0-0-5------|
|-0-0-0-0-0-0-0-0-0-0-0-0-0-0-0-0-0-0-0-0--------|


  D5                                      N.C.
  PM--------------------|
  T T S T T S T T S T T S H
|-------------------------------------------------------|
|-------------------------------------------------------|
|-------------------------------------------------------|
|-------------------------------------------------------|
|-0-0-0-0-0-0-0-0-0-0-0-0-------------------------------|
|-0-0-0-0-0-0-0-0-0-0-0-0-------------------------------|
|
| PM------------------------------------|            ~~~
| T T S T T S T T S T T S T T T T T T T T S     +S   E
|-------------------------------------------------------|
|-------------------------------------------------------|
|-------------------------------------------------------|
|-----------------------------------------2b2.5r(2)-----|
|-0-0-0-0-0-0-0-0-0-0-0-0-0-0-0-0-0-0-0-0-----------[3]-|
|-0-0-0-0-0-0-0-0-0-0-0-0-0-0-0-0-0-0-0-0---------------|


  H.=H                                 Q=66
  D5                                N.C.
 5/4
  PM--------------------|
  T T S T T S T T S T T S H             Q
|-------------------------------------------||
|-------------------------------------------||
|-------------------------------------------||
|-------------------------------------------||
|-0-0-0-0-0-0-0-0-0-0-0-0-------------------||
|-0-0-0-0-0-0-0-0-0-0-0-0-------------------||
|
| PM----------------------------|
| T T S T T S T T S T T S T T T T E Q   Q
|-------------------------------------------||
|-------------------------------------------||
|-------------------------------------------||
|-------------------------------------------||
|-0-0-0-0-0-0-0-0-0-0-0-0-0-0-0-0-----------||
|-0-0-0-0-0-0-0-0-0-0-0-0-0-0-0-0---7--[3]--||


 *Beatdown*
  Slowly Q=74
  D5
 4/4
  PM----|   PM----|   PM----|   PM-------|
  T T T E T T T T E T T T T E T T T E.   +W
|--------------------------------------|--------------------|
|--------------------------------------|--------------------|
|--------------------------------------|--------------------|
|--------------------------------------|--------------------|
|-0-0-0-----0-0-0-----0-0-0-----0-0-0--|-(0)----------------|
|-0-0-0-----0-0-0-----0-0-0-----0-0-0--|-(0)----------------|
|
| PM----|   PM----|   PM----|   PM--------------------|
| T T T E T T T T E T T T T E T T T E.   +H     T T S +Q.
|--------------------------------------|--------------------|
|--------------------------------------|--------------------|
|--------------------------------------|--------------------|
|--------------------------------------|--------------------|
|-0-0-0-----0-0-0-----0-0-0-----0-0-0--|-(0)----0-0-0-(0)---|
|-0-0-0-----0-0-0-----0-0-0-----0-0-0--|-(0)----0-0-0-(0)---|


    D5
                                          5/4
    PM----|   PM----|   PM----|   PM-------|
    T T T E T T T T E T T T T E T T T E.   +W                 +Q    3x
||---------------------------------------|--------------------------||
||o--------------------------------------|-------------------------o||
||---------------------------------------|--------------------------||
||---------------------------------------|--------------------------||
||o-0-0-0-----0-0-0-----0-0-0-----0-0-0--|-(0)----------------(0)--o||
||--0-0-0-----0-0-0-----0-0-0-----0-0-0--|-(0)----------------(0)---||
|
|   PM----|   PM----|   PM----|   PM----------------------|
|   T T T E T T T T E T T T T E T T T E.   +H.      T T S +Q.       3x
||---------------------------------------|--------------------------||
||o--------------------------------------|-------------------------o||
||---------------------------------------|--------------------------||
||---------------------------------------|--------------------------||
||o-0-0-0-----0-0-0-----0-0-0-----0-0-0--|-(0)------0-0-0-(0)------o||
||--0-0-0-----0-0-0-----0-0-0-----0-0-0--|-(0)------0-0-0-(0)-------||


  D5                                                         N.C.
 3/4                              4/4
  PM-------------------|           PM---------------------|  TPTP TPTPTPTP
  T T T T T S. T T T T T Q  S.     T T T T T S. T T T T T S. S S  S S E E   4x
|------------------------------||-------------------------------------------||
|------------------------------||o-----------------------------------------o||
|------------------------------||-------------------------------------------||
|------------------------------||-------------------------------------7-6---||
|-0-0-0-0-0----0-0-0-0-0-------||o-0-0-0-0-0----0-0-0-0-0----5-5--8-5------o||
|-0-0-0-0-0----0-0-0-0-0-------||--0-0-0-0-0----0-0-0-0-0-------------------||
|
| PM-------------------|           PM---------------------|  TPTP TPTPTPTP
| T T T T T S. T T T T T Q  S.     T T T T T S. T T T T T S. S S  S S E E   4x
|------------------------------||-------------------------------------------||
|------------------------------||o-----------------------------------------o||
|------------------------------||-------------------------------------9-8---||
|------------------------------||----------------------------7-7-10-7-------||
|-0-0-0-0-0----0-0-0-0-0-------||o-0-0-0-0-0----0-0-0-0-0------------------o||
|-0-0-0-0-0----0-0-0-0-0-------||--0-0-0-0-0----0-0-0-0-0-------------------||


    D5                        N.C.
    PM---------------------|  TPTPTPTPTPTP
    T T T T T S. T T T T T S. S S S S E E
||----------------------------------------|
||o---------------------------------------|
||----------------------------------------|
||------------------------------------3-2-|
||o-0-0-0-0-0----0-0-0-0-0----1-1-4-1-----|
||--0-0-0-0-0----0-0-0-0-0----------------|
|
|   PM---------------------|  TPTPTPTPTPTP
|   T T T T T S. T T T T T S. S S S S E E
||----------------------------------------|
||o---------------------------------------|
||----------------------------------------|
||------------------------------------3-2-|
||o-0-0-0-0-0----0-0-0-0-0----1-1-4-1-----|
||--0-0-0-0-0----0-0-0-0-0----------------|


  D5                        N.C.
  PM---------------------|  TPTPTPTPTP TP
  T T T T T S. T T T T T S. S S S S E  E
|-------------------------------------------||
|------------------------------------------o||
|-------------------------------------------||
|-----------------------------------3--2----||
|-0-0-0-0-0----0-0-0-0-0----1-1-4-1--------o||
|-0-0-0-0-0----0-0-0-0-0--------------------||
|
| PM---------------------|  TPTPTPTPTP ~~~
| T T T T T S. T T T T T S. S S S S E  E
|-------------------------------------------||
|------------------------------------------o||
|-------------------------------------------||
|-----------------------------------3-[2]---||
|-0-0-0-0-0----0-0-0-0-0----1-1-4-1--------o||
|-0-0-0-0-0----0-0-0-0-0--------------------||


  Fast Q=96
  D5
 3/4
  Gtrs I, II
  PM-------------------|
  T T T T T S. T T T T T Q  S.   H.
|------------------------------|-------*|
|------------------------------|-------*|
|------------------------------|-------*|
|------------------------------|-------*|
|-0-0-0-0-0----0-0-0-0-0-------|-------*|
|-0-0-0-0-0----0-0-0-0-0-------|-------*|



Duration Legend
---------------
W - whole; H - half; Q - quarter; E - 8th; S - 16th; T - 32nd; X - 64th; a - acciaccatura
+ - note tied to previous; . - note dotted; .. - note double dotted
Uncapitalized letters represent notes that are staccato (1/2 duration)
Irregular groupings are notated above the duration line
Duration letters will always appear directly above the note/fret number it represents the
duration for.  Duration letters with no fret number below them represent rests.  Multi-
bar rests are notated in the form Wxn, where n is the number of bars to rest for.  Low
melody durations appear below the staff

Tablature Legend
----------------
 h   - hammer-on
 p   - pull-off
 b   - bend
 pb  - pre-bend
 r   - bend release (if no number after the r, then release immediately)
 /\  - slide into or out of (from/to "nowhere")
 s   - legato slide
 S   - shift slide
 - natural harmonic
[n]  - artificial harmonic
n(n) - tapped harmonic
 ~   - vibrato
 tr  - trill
 T   - tap
 TP  - trem. picking
 PM  - palm muting
\n/  - tremolo bar dip; n = amount to dip
 \n  - tremolo bar down
 n/  - tremolo bar up
/n\  - tremolo bar inverted dip
 =   - hold bend; also acts as connecting device for hammers/pulls
 <> - volume swell (louder/softer)
 x   - on rhythm slash represents muted slash
 o   - on rhythm slash represents single note slash

Misc Legend
-----------
 |  - bar
||  - double bar
||o - repeat start
o|| - repeat end
*|  - double bar (ending)
 :  - bar (freetime)
 $  - Segno
 &  - Coda
Tempo markers -  = BPM(8/16=s8/s16), where s8 = swing 8ths, s16 = swing 16ths
            
Hard to play? Try these video lessons and learn fast. | Correct




comments powered by Disqus
↑ Back to top | Tablatures and chords are parodies/interpretations of the original songs. You may use it for private study, scholarship, research or language learning purposes only