» » »

Bloodspattered Satisfaction Bass tabs (ver.1)

Artists:  A B C D E F G H I J K L M N O P Q R S T U V W X Y Z # 

Bloodspattered Satisfaction Bass tabs (ver.1)

Waking The Cadaver
Rating:
3/5 (1 vote)

Hard to play? Try these video lessons and learn fast.
                Band: Waking The Cadaver
Tuning: CGCF

Riff 1
|-----------------------------------------|
|-----------------------------------------|
|---1---0---------------1---0-------------|
|-0---5---5-3-2-3-2-3-0---5---5-3-2-3-2-3-|
  .                   .           . . . .                            
Riff 2
|---------------------|    |---|
|---------------------| 4X |---|
|---1---0-------------|    |---|
|-0---5---5-3-2-3-2-3-|    |-0-|
  .                          .
Riff 3 x2
|-----------------------------------------------------|
|-----------------------------------------------------|
|-----44444444-----44444444-----33333333-----33333333-|
|-1-0----------1-0----------1-0----------1-0----------|
    .            .            .            .

Riff 4 x4
|---------------------------------------------------|
|------1111-0000------------------------------------|
|----------------0000-------------------------------|
|-3333----------------6666-5555-3333-5555-3333-5555-|
  .... .... .... .... .... .... .... .... .... ....

Riff 5                         
|-----------------------|
|----6-5----------------| 
|-0------5-4-3-1-3-1-3--|
|-----------------------|

Riff 6
|---------|
|---------|
|---------|
|-3-1-0-0-|
      . .

Riff 7 x12
|-----------------|
|-----------------|
|-----------------|
|-000-000-000-000-|
  ... ... ... ...

Riff 8 x4
|---------------|-----------------2-1-|
|---------------|-------------0-3-----|
|---------------|---------------------|
|-00000-00000---|-00000-00000---------|
  ..... .....     ..... ..... 

Riff 9 x4
|---------------------|
|-----------------3-2-|
|-------------1-4-----|
|-00000-00000---------|
  ..... ..... 
            
Hard to play? Try these video lessons and learn fast. | Correct




comments powered by Disqus
↑ Back to top | Tablatures and chords are parodies/interpretations of the original songs. You may use it for private study, scholarship, research or language learning purposes only