» » »

Long Shot Tabs (ver.1)

Artists:  A B C D E F G H I J K L M N O P Q R S T U V W X Y Z # 

Long Shot Tabs (ver.1)

Waking Ashland
Rating:
0/5 (0 votes)

Hard to play? Try these video lessons and learn fast.
                

     This version of the song is from the EP and not the one off of Composure. Both
are amazing but this was the version I usually play and the one that I am more familiar
Drop the tuning to a D and play with your amp clean with a high amount of gain. Put
gain to give it a good crunch! If you play along with the song it should make sense.
I hope you enjoy it!

Intro

(2x)                          (2x)
e----------------------------|------------------|
b----------------------------|-------------9-8--|
g-888-777-888-888-888--10-10-|-888-777-888------|
d----------------------------|------------------|
a----------------------------|------------------|
D----------------------------|------------------|
PM..............................................
*Heavy palm mute but as the intro goes on make the pm's lighter until...

e-----11-----11----------11----11---------------|
b-8-9----8-9----8-9--8-9---8-9----8-9-----------|
g-----------------------------------------------|
d-----------------------------------------------|
a-----------------------------------------------|
D-----------------------------------------------|
* Repeat this over and over until the verse.

Verse

e-----------------------|
b-----------------------|
g--8~-88888888~---------|
d--8~-88888888~-6~--8~--|
a--6~-66666666~-6~--8~--|
D---------------6~--8~--|
*This is really for piano but it fits perfectly
"I've made the call..."

e---------------------------|
b---------------------------|
g--888-777-888-777-888-777--|
d---------------------------|
a---------------------------|
D---------------------------|
pm..........................
"It's beautiful to let go..."

Pre Chorus

e---------------------------------|
b---------------------------------|
g--8p101010-8p101010-8p101010-----|
d---------------------------------|
a---------------------------------|
D---------------------------------|

e--------------------------------------------------|
b------------------------------------------11~-----|
g--8p101010--8p101010-8p101010--8p101010-8---------|
d----\bend/----\bend/---\bend/----\bend/-----------|
a-----\--/------\--/-----\--/------\--/------------|
D------\/--------\/-------\/--------\/-------------|

Chorus

e------|----------------------------|
b------|----------------------------|
g------|----------------------------|
d-888--|-10--8--6--8----------------|
a-888--|-10--8--6--8----------------|
D-888--|-10--8--6--8----------------|

Intro
Verse
Pre Chorus
Chorus

Bridge

e---------------------------------|
b-11-9-8-9--11-9-8----------------|
g------------------10-11-10-11----|
d---------------------------------|
a---------------------------------|
D---------------------------------|

e-----------------------------------------------------------|--------|
b-----------------------------------------------------------|--------|
g--88-77-88-77-8-7-88-77-88-77-8-7--10-10-10-10--11-11-11-11|-10/8---|
d-----------------------------------------------------------|--------|
a-----------------------------------------------------------|--------|
D-----------------------------------------------------------|--------|

Breakdown

e-------------------------------------|
b-------------------------------------|
g-------------------------------------|
d--1010101010101010-88888888-66666666-|
a--1010101010101010-88888888-66666666-|
D--1010101010101010-88888888-66666666-|

e----------------------------------------------------|
b----------------------------------------------------|
g-1212121212121212-1010101010101010-0808080808080808-|
d-1010101010101010-0808080808080808-0606060606060606-|
a-1010101010101010-0808080808080808-0606060606060606-|
D-1010101010101010-0808080808080808-0606060606060606-|
                   ` ` ` ` ` ` ` `  ` ` ` ` ` ` ` `
` doesn't mean that it is open strings, means the number of fret.
IE: 6th and 8th fret (06th and 08th fret)

e-------------------|
b-------------------|
g--12----10----15---|
d-------------------|
a--10----08----13---|
D-------------------|

e------11-----11----------11-----11--------|
b--8-9----8-9----8-9--8-9----8-9----8-9-8--|
g------------------------------------------|
d------------------------------------------|
a------------------------------------------|
D------------------------------------------|
*Repeat this to fade... eventually adding a delay pedal.. not necessary
            
Hard to play? Try these video lessons and learn fast. | Correct




comments powered by Disqus
↑ Back to top | Tablatures and chords are parodies/interpretations of the original songs. You may use it for private study, scholarship, research or language learning purposes only