» » »

Waking Ashland, All Hands On Deck Tabs (ver.1)

Artists:  A B C D E F G H I J K L M N O P Q R S T U V W X Y Z # 

All Hands On Deck Tabs (ver.1)

Waking Ashland Tabs
 Rating:
4/5 (4 votes)
All Hands On Deck lessons Tabs too difficult? Try these video lessons and learn fast
1
                
                                 "All Hands On Deck"
                                  by Waking Ashland


Standard-Capo 7th Fret

Intro 0:13
 |-------------------------------------------------------------------|
 |-------------------------------------------------------------------|
 |---------4---------------------------------------------------------|
 |-------2-----------------------------------------------------------|
 |--0h2--------------------------------------------------------------|
 |-------------------------------------------------------------------|

|------------0~-------------0~---0~-|--0---0---0---0---0---0---0-0---|
|------------0~------------------0~-|--0---0---0---0---0---0---0-0---|
|----------4-------------4-------4~-|--4---4---4---4---4---4---4-4---|
|--------2-------------2---------2~-|--2---2---2---2---2---2---2-2---|
|--2-----------------2-----------2~-|--2---2---2---2---2---2---2-2---|
|--0-----------------0-----------0~-|--0---0---0---0---0---0---0-0---|

Chorus 1 0:27 *listen for the strumming*
|--0-------0-------0-------|
|--0-------0-------0-------|
|--4-(x8)--4-(x8)--2-(x16)-|   x2
|--2-------4-------2-------|
|--2-------2-------0-------|
|--0-------0-------0-------|

Verse 1 0:52
|--------0~---------0~---------0~--------0~--|
|--------0~---------0~---------0~--------0~--|
|------4----------4----------2---------2-----|    x2
|----2----------4--------2-2-------2-2-------|
|--2----------2----------0---------0---------|
|--0-----------------------------------------|

Second part of Verse 1 1:16
|--0-------0-------0--------|--0-------0-------0-------0--------0------0~-|
|--0-------0-------0--------|--0-------0-------0-------0--------0------0~-|
|--4-------4-------2--------|--4-------4-------2-------4--------4------4~-|
|--2-(x8)--4-(x8)--2-(x16)--|--2-(x8)--4-(x8)--2(x4)---4-(x4)---2-(x4)-2~-|
|--2-------2-------0--------|--2-------2-------0-------2--------2------2~-|
|--0-------0-------0--------|--0-------0-------0-------0--------0------0~-|


Second Chorus 1:41 *listen for the strumming*
|--0-------0-------0-------|
|--0-------0-------0-------|
|--4-(x8)--4-(x8)--2-(x16)-|   x2
|--2-------4-------2-------|
|--2-------2-------0-------|
|--0-------0-------0-------|

Verse 2 2:05
|--------0~---------0~---------0~--------0~--|
|--------0~---------0~---------0~--------0~--|
|------4----------4----------2---------2-----|    x2
|----2----------4--------2-2-------2-2-------|
|--2----------2----------0---------0---------|
|--0-----------------------------------------|

Second part of Verse 2 2:30
|--0-------0-------0--------|--0-------0-------0-------0--------0------0~-|
|--0-------0-------0--------|--0-------0-------0-------0--------0------0~-|
|--4-------4-------2--------|--4-------4-------2-------4--------4------4~-|
|--2-(x8)--4-(x8)--2-(x16)--|--2-(x8)--4-(x8)--2(x4)---4-(x4)---2-(x4)-2~-|
|--2-------2-------0--------|--2-------2-------0-------2--------2------2~-|
|--0-------0-------0--------|--0-------0-------0-------0--------0------0~-|

Third Chorus 2:55 *listen for the strumming*
|--0-------0-------0-------|
|--0-------0-------0-------|
|--4-(x8)--4-(x8)--2-(x16)-|   x4
|--2-------4-------2-------|
|--2-------2-------0-------|
|--0-------0-------0-------|

Bridge 3:44 *same as chorus but w/ different strumming pattern
|--0-------0-------0-------|
|--0-------0-------0-------|
|--4-(x8)--4-(x8)--2-(x16)-|   x2
|--2-------4-------2-------|
|--2-------2-------0-------|
|--0-------0-------0-------|

Fourth Chorus 4:08 *listen for the strumming*
|--0-------0-------0-------|
|--0-------0-------0-------|
|--4-(x8)--4-(x8)--2-(x16)-|   x2
|--2-------4-------2-------|
|--2-------2-------0-------|
|--0-------0-------0-------|


Outro 4:33 *listen for the strumming*
|--0-------0-------0-------|
|--0-------0-------0-------|
|--4-(x8)--4-(x8)--2-(x16)-|   x2
|--2-------4-------2-------|
|--2-------2-------0-------|
|--0-------0-------0-------|

 This is my first tab ever...actually the first song i have ever attempted to learn by 
so i apologize for mistakes. Enjoy!
            
Submit corrections

comments powered by Disqus
↑ Back to top | Waking Ashland Tabs for All Hands On Deck. Lyrics for acoustic guitar and electric guitar. 1 Tablatures and chords are parodies/interpretations of the original songs. You may use it for private study, scholarship, research or language learning purposes only