>
 >
Panaginip

Panaginip Guitar Tabs

Wake Up Your Seatmate - Panaginip chords, tabs, tablatures, lyrics

Guitar lessons | Add/correct | Request | Top 50 tabs Artists:  A B C D E F G H I J K L M N O P Q R S T U V W X Y Z 0-9

Panaginip Guitar Tabs – Wake Up Your Seatmate

CD, Sheet music, Poster

Do you like Panaginip? Share with your friends now
ChordsTabsTabs v2Ukulele
Album:Wake Up Your Seatmate

For your questions or suggestions,just post in friendster comment,PM or mail me.
        
Gtr.Legends:
~ - let it ring
/ - slide
h - hammer-on
p - pull-off

Gtr.Tuning:Stndard(Normal)

   G    Bm   D    D-sus   Am   C
e|-3--  -2-  -2-  -3----  -0-  -0---|
B|-3--  -3-  -3-  -3----  -1-  -1---|
G|-0--  -4-  -2-  -2----  -2-  -0---|
D|-0--  -4-  -0-  ------  -2-  -2---|
A|-2--  -2-  -0-  ------  -0-  -3---|
E|-3--  ---  ---  ------  ---  -----|

Intro:
Bass:
G|---------12---|
D|-12--14-------|
A|--------------|
E|--------------|

Gtr.1
e|--------33333--22222--222223322---33333--33333--222223322---|
B|--------33333--33333--333333333---33333--22222--333333333---|
G|--------00000--44444--222223222---00000--44444--222222222---|
D|-----5--00000--44444--000000000---00000--44444--000000000---|
A|-5-7----22222--22222--000000000---22222--22222--000000000---|
E|--------33333---------------------33333---------------------|

Gtr.2
e|--------15~----14~------------15~----17~-------------------|
B|-----------------------15~-------------------15~---15/17---|
G|-----------------------------------------------------------|
D|-----5-----------------------------------------------------|
A|-5-7-------------------------------------------------------|
E|-----------------------------------------------------------|

Verse:Ika'y nakikita...
Gtr.1
e|-33333--22222--222223322---33333--33333--222223322---|
B|-33333--33333--333333333---33333--22222--333333333---|
G|-00000--44444--222223222---00000--44444--222222222---|
D|-00000--44444--000000000---00000--44444--000000000---|
A|-22222--22222--000000000---22222--22222--000000000---|
E|-33333---------------------33333---------------------|

Pre-Chorus:Ilang taon...
Gtr.1
e|-00000--22222--0000---|
B|-11111--33333--0000---|
G|-00000--22222--0000---| 2x
D|-22222--00000--2222---|
A|-33333--00000--2222---|
E|---------------0000---|

Gtr.2
e|-15-------15-14------14-15--14------|
B|----15----------15-------------15---|
G|------------------------------------| 2x
D|------------------------------------|
A|------------------------------------|
E|------------------------------------|

Chorus:Gusto ng maidlip...
e|-3333--0000--2222--00000---|
B|-3333--1111--3333--11111---|
G|-0000--2222--4444--00000---| 2x
D|-0000--2222--4444--22222---| Then
A|-2222--0000--2222--33333---|
E|-3333----------------------|

Para kahit...
e|-2222--0000--      -2222222---|
B|-3333--0000--      -3333333---|
G|-2222--0000-- 3x   -2222222---|
D|-0000--2222-- Then -0000000---|
A|-------2222--      -----------|
E|-------0000--      -----------|

Pre-Verse 2 When Drum Enters:
Gtr.1:Play Verse 1

Gtr.2:
e|-15~--14~-------------------------------------------------------------------------------
B|-----------15~---15-13-12-----------------------------------------15151515--13-12-------
G|--------------------------13-14~---13h15-13h15-16161616--16-14-13-----------------14~---
D|----------------------------------------------------------------------------------------
A|----------------------------------------------------------------------------------------
E|----------------------------------------------------------------------------------------

------------------------|
------------------------|
-14-12-11-12-12~--12~---|
------------------------|
------------------------|
------------------------|

Verse 2:Bakit parating...
Play Verse 1

Repeat Pre-Chorus:

Repeat Chorus:

Bridge(Adlib):
Gtr.1:Play Verse 1

Gtr.2:
e|--------------------10~--10-8-7-------7-10101010-8-7-10~--10/12-10~-10-8-7-----------------|
B|-8-10-12p10-8-10--7-------------8-10---------------------------------------8-10------------|
G|---------------------------------------------------------------------------------11~-12~---|
D|-------------------------------------------------------------------------------------------|
A|-------------------------------------------------------------------------------------------|
E|-------------------------------------------------------------------------------------------|

Verse 3:Mahal pa rin kita....
Play Verse 1

Repeat Chorus:

Outro Chorus:Para kahit na hindi...
e|-2222--0000--      -2222222---|
B|-3333--0000--      -3333333---|
G|-2222--0000-- 3x   -2222222---|
D|-0000--2222-- Then -0000000---|
A|-------2222--      -----------|
E|-------0000--      -----------|

Repeat Bridge:

Outro:
Play Verse 1

Last Chord: 
e|-3~---|
B|-3~---|
G|-0~---|
D|-0~---|
A|-2~---|
E|-3~---|

End...


Panaginip Lyrics:

Verse 1:
Ika'y nakikita ngunit hindi mahawakan
Inakalang nandyan ka pero wala naman pala

Pre-Chorus:
Ilang taon na tayong naghihintay para magsama
Ilang taon pa ang kinakailangang lumipas

Chorus:
Gusto ng maidlip para makapanaginip
Umalis sa mundong totoo at puno ng gulo
Para kahit sandali, ika'y makatabi
Para kahit papaano, 'di ka na lalayo

Verse 2:
Bakit parating nahihirapan, ang mga taong nagmamahalan
Naiipit sa gitna ng kaguluha

Repeat Pre-Chorus:

Repeat Chorus:

Verse 3
Mahal parin kita at parating mamahalin
Mayron mang bago sa aking buhay
Ikaw parin ang iisipin

Repeat Pre-Chorus:

Repeat Chorus:

Outro Chorus:
Para kahit na hindi
Tayo sa huli
Sa aking mga panaginip
Tayo'y magwawagi...





Comments


Popular Wake Up Your Seatmate tabs & chords
Hanging Out With You Chords
Panaginip Chords
Tiger Lili Chords
Charm Me Tabs
Panaginip 1 Tabs
Tiger Lili Tabs
Hanging Out With You Ukulele
Panaginip Ukulele
Tiger Lili Ukulele


Song lyrics



↑ Back to top | Tablatures and chords are parodies/interpretations of the original songs. You may use it for private study, scholarship, research or language learning purposes only
© 2014 AZChords.com Contact us | Privacy policy | DMCA | Add/correct tabs | Request tabs | Top 50 tabs