» » »

Wakefield, Wild One Tabs (ver.1)

Artists:  A B C D E F G H I J K L M N O P Q R S T U V W X Y Z # 

Wild One Tabs (ver.1)

Wakefield Tabs
 Rating:
4.2/5 (5 votes)
Wild One lessons Tabs too difficult? Try these video lessons and learn fast
1
                Song - Wild One
Performed By Wakefield
On The Eurotrip Soundtrack
Written by Johnny Greenan, Johnny O'Keefe & David Owens



Intro --
e|------------------------------------------------------|
B|------------------------------------------------------|
G|------------------------------------------------------|
D|-55--5-5--55--5-5--55--5-5--55--5-5-------------------|
A|-33--3-3--33--3-3--33--3-3--33--3-3--33--3-3--33--3-3-|
E|-------------------------------------11--1-1--11--1-1-|


e|-----------------------------------------------------|
B|-----------------------------------------------------|
G|-----------------------------------------------------|
D|-55--5-5--55--5-5--------------------55--5-5--55--5-5|
A|-33--3-3--33--3-3--55--5-5--33--3-3--33--3-3--33--3-3|
E|-------------------33--3-3--11--1-1------------------|

Verse --

  >--Palm Mute-------->------------->---------------->
e|----------------------------------------------------|
B|----------------------------------------------------|
G|----------------------------------------------------|
D|-555555555555555555555555555555555------------------|
A|-333333333333333333333333333333333-3333333333333333-|
E|-----------------------------------1111111111111111-|


e|-----------------------------------------------------|
B|-----------------------------------------------------|
G|-----------------------------------------------------|
D|-5555555555555555------------------5555555555555555--|
A|-3333333333333333-5555555533333333-3333333333333333--|
E|------------------3333333311111111-------------------|


Chorus --

e|------------------------------------------------------|
B|------------------------------------------------------|
G|------------------------------------------------------|
D|-55--5-5--55--5-5--55--5-5--55--5-5-------------------|
A|-33--3-3--33--3-3--33--3-3--33--3-3--33--3-3--33--3-3-|
E|-------------------------------------11--1-1--11--1-1-|


e|-----------------------------------------------------|
B|-----------------------------------------------------|
G|-----------------------------------------------------|
D|-55--5-5--55--5-5--------------------55--5-5--55--5-5|
A|-33--3-3--33--3-3--55--5-5--33--3-3--33--3-3--33--3-3|
E|-------------------33--3-3--11--1-1------------------|


Bridge --
      >-- Palm Mute--------------> 
e|--------------------------------|
B|--------------------------------|
G|--------------------------------|
D|-22-5-55555555------------------|
A|-00-3-33333333-3333333333333333-|
E|---------------1111111111111111-|

      >-- Palm Mute----------------------------->
e|--------------------------------------------------|
B|--------------------------------------------------|
G|--------------------------------------------------|
D|-22-5-55555555------------------------------------|
A|-00-3-33333333-33333333333333333333333333333333-2-|
E|---------------11111111111111111111111111111111-0-|

(do lots of short pick slides inbetween these bits)

   
e|------------------------|
B|------------------------|
G|------------------------|
D|-------------222-3---3--|
A|-222-333-555-000-1---1--|
E|-000-111-333------------|


Outro --

e|-----------------------------------------|
B|-----------------------------------------|
G|-----------------------------------------|
D|-55555555-------------55555555-----------|
A|-33333333-3333-5555---33333333-3333-5555-|
E|----------1111-3333------------1111-3333-|

(Tiny Pause) 

e|-----------------------------------|
B|-----------------------------------|
G|-----------------------------------|
D|55555555------------55555555-----5-| - Let Ring
A|33333333-3333-5555--33333333-3-5-3-|
E|-------- 1111-3333-----------1-3---|


Intro
Verse
Chorus
verse
Chorus
Bridge
Chorus
Outro

--Lyrics--

(I’m a real Wild one)

Well im just out of school
I’m really really cool
gotta dance like a fool
i got the message gonna be a wild one
oh yeah I’m a wild one
gonna break it loose
gonna keep it moving wild
gonna keep it swinging baby
I’m a real wild child

wild one
(yeah, yeah, yeah)
I’m a wild one
(yeah, yeah, yeah)
wild one
(yeah, yeah, yeah)
I’m a wild one
(yeah, yeah, yeah)
Oooooh 
Yeah I’m a real wild one

gonna meet all my friends
gonna have a ball
gonna tell all my friends
tell them all that I’m a wild one
oooh yeah I’m a wild one
gonna break it loose
gonna keep it moving wild
gonna keep it swinging baby
I’m a real wild ch-ch-ch-ch-child

wild one
(yeah, yeah, yeah)
I’m a wild one
(yeah, yeah, yeah)
wild one
(yeah, yeah, yeah)
I’m a wild one
(yeah, yeah, yeah)
Oooooh 
I’m a real wild one

I’m gonna keep on moving baby
I’m gonna keep on moving on
in a world that has gone crazy
you'll probably never get it
just jealous cause i said it
woke up out of leather
but i wont live to regret it
feeling ooooh

Well im just out of school
like I’m really really cool
gotta dance like a fool
i got the message gonna be a...
WILD ONE

wild one
(yeah, yeah, yeah)
I’m a wild one
(yeah, yeah, yeah)
wild one
(yeah, yeah, yeah)
I’m a wild one
(yeah, yeah, yeah)
wild one
(yeah, yeah, yeah)
I’m a wild one
(yeah, yeah, yeah)
Oooooh 

I’m a real wild one
            
Submit corrections

comments powered by Disqus
↑ Back to top | Wakefield Tabs for Wild One. Lyrics for acoustic guitar and electric guitar. 1 Tablatures and chords are parodies/interpretations of the original songs. You may use it for private study, scholarship, research or language learning purposes only