» » »

Wakefield, Un-Sweet Sixteen Bass tabs (ver.1)

Artists:  A B C D E F G H I J K L M N O P Q R S T U V W X Y Z # 

Un-Sweet Sixteen Bass tabs (ver.1)

Wakefield Tabs
 Rating:
4/5 (4 votes)
Un-Sweet Sixteen lessons Tabs too difficult? Try these video lessons and learn fast
                INTRO 
G:---------------------------------------------
D:---------------------------------------------  
A:-333333-2-0------2----555555-2-0----11111111-
E:-----------333333-2-------------------------- 3x

CHORUS
G:-----------------------------------
D:-----------------------------------  
A:33333333--------55555555--11111111-
E:--------33333333------------------- 2x

VERSE 2
G:---------------------------------------------
D:---------------------------------------------   
A:-333333-2-0------2----555555-2-0----11111111-
E:-----------333333-2-------------------------- 2x

INTERLUDE
G:---------
D:---------  
A:-333-222-
E:--------- 1x

CHORUS
G:-----------------------------------
D:-----------------------------------  
A:33333333--------55555555--11111111-
E:--------33333333------------------- 2x

BRIDGE
G:----------------------------------
D:----------------------------------
A:-3333333--2-----------------------
E:-----------3--555555555--11111111-

CHORUS
G:-----------------------------------
D:-----------------------------------  
A:33333333--------55555555--11111111-
E:--------33333333------------------- 3x

END
G:------------
D:------------
A:-33333333-2-
E:-----------3
            
Submit corrections

comments powered by Disqus
↑ Back to top | Wakefield Bass for Un-Sweet Sixteen. Lyrics for acoustic guitar and electric guitar. Tablatures and chords are parodies/interpretations of the original songs. You may use it for private study, scholarship, research or language learning purposes only