» » »

Wakefield, Say You Will Tabs (ver.1)

Artists:  A B C D E F G H I J K L M N O P Q R S T U V W X Y Z # 

Say You Will Tabs (ver.1)

Wakefield Tabs
 Rating:
4.4/5 (7 votes)
Say You Will lessons Tabs too difficult? Try these video lessons and learn fast
1
                --------------------------------------------------------------------------------
                            Say You Will - WakeFeild
--------------------------------------------------------------------------------

Albulm: American Made
Tunning: Half step down: Eb, Ab, Db, Gb, Bb, eb,

Guitar 1: Intro: [w/Distortion]
"Say you will, say you might" 
(0:00 - 0:11)
eb|-----------------------------------------------|
Bb|-----------------------------------------------|
Gb|------------------------------7-7-7-7--9-9-9-9-|
Db|-7~---------------------------7-7-7-7--9-9-9-9-|
Ab|-7~---------------------------5-5-5-5--7-7-7-7-|
Eb|-5~--------------------------------------------|

Guitar 1: Verse 1: [w/Distortion]
"Please won't you just calm down..."
(0:12 - 0:22)
eb|----------------------------------------------------------------|
Bb|----------------------------------------------------------------|
Gb|--------------------------------------------------------7-7-7-7-|
Db|-7~----7---------------------------------------4-4-4-4--7-7-7-7-|
Ab|-7~----7-/-/-/-/-/-/-/-/-/-/-/-/-/-/-/-/-/-/-/-4-4-4-4--5-5-5-5-|
Eb|-5~----5-/-/-/-/-/-/-/-/-/-/-/-/-/-/-/-/-/-/-/-2-2-2-2----------|

Guitar 1: Verse 1: Continued:
"She was a big mistake...."
(0:23 - 0:33)
eb|-------------------------------------|
Bb|-------------------------------------|
Gb|----------9-9-9-9------------7-7-7-7-|
Db|-7-7-7-7--9-9-9-9--4-4-4-4---7-7-7-7-|
Ab|-7-7-7-7--7-7-7-7--4-4-4-4---5-5-5-5-|
Eb|-5-5-5-5-----------2-2-2-2-----------|

Guitar 2: Verse Fills:
1-)(0:24 - 0:26)(1:20 - 1:22)
eb|-------------|
Bb|-------------|
Gb|-------------|
Db|-------------|
Ab|-5p-4-5p-4---|
Eb|-----------5-|

2-)"Yeah..."
(0:32 - 0:34) (1:28 - 1:30)
eb|---------|
Bb|---------|
Gb|-9-9-9-9-|
Db|-x-x-x-x-|
Ab|-7-7-7-7-|
Eb|---------|

Guitar 1: Verse End: [w/Distortion]
"Yeah..."
(0:32 - 0:34) (1:28 - 1:30)
eb|---------|
Bb|---------|
Gb|---------|
Db|-2-2-2-2-|
Ab|-2-2-2-2-|
Eb|-0-0-0-0-|


Guitar 1: Pre-chorus: [w/Distortion]
"There out to get me, you've..."
(0:34 - 0:39)(1:30 - 1:34)
eb|------------------|
Bb|------------------|
Gb|-7-7-7-7----------|
Db|-7-7-7-7--2-2-2-2-|
Ab|-5-5-5-5--2-2-2-2-|
Eb|----------0-0-0-0-|

Guitar 2: Pre-Chorus: [w/Distortion]
(0:34 - 0:39)(1:30 - 1:34)
eb|------------------|
Bb|------------------|
Gb|-7--------9-------|
Db|-x--------x-------|
Ab|-5--------7-------|
Eb|------------------|


Guitar 1: Chorus: [w/Distortion]
"Say You will, say you might, but...
(0:40 - 0:46)(1:35 - 1:42)(2: 20 - 2:28)(2:38 - 2:44)
eb|--------------------------------------------------|
Bb|--------------------------------------------------|
Gb|-------------------------------------7-7-7--------|
Db|-7-7-7-7--7-7-7-7--4-4-4-4--2-2-2-2--7-7-7--x-x-x-|
Ab|-7-7-7-7--7-7-7-7--4-4-4-4--2-2-2-2--5-5-5--x-x-x-|
Eb|-5-5-5-5--4-4-4-4--2-2-2-2--0-0-0-0---------x-x-x-|

Guitar 2: Chorus: [w/Distortion]
(0:40 - 0:46)(1:35 - 1:42)(2: 20 - 2:28)(2:38 - 2:44)
eb|-------------------------------------------------|
Bb|-------------------------------------------------|
Gb|-7-7-7-7--7-7-7-7--4-4-4-4--2-2-2-2--7-7-7-7-7-7-|
Db|-----------------------------------------7-7-7-7-|
Ab|-----------------------------------------5-5-5-5-|
Eb|-------------------------------------------------|

Guitar 1: Chorus Part 2: [w/Distortion]
"That you'd try to change your mind..."
(0:47 - 0:56) (1:43 - 15:2) (2:29 - 2:37)(2:45 - 2:55)
eb|--------------------------------------------------|
Bb|--------------------------------------------------|
Gb|-------------------------------------7-7-7--------|
Db|-7-7-7-7--7-7-7-7--4-4-4-4--2-2-2-2--7-7-7--2-2-2-|
Ab|-7-7-7-7--7-7-7-7--4-4-4-4--2-2-2-2--5-5-5--2-2-2-|
Eb|-5-5-5-5--4-4-4-4--2-2-2-2--0-0-0-0---------0-0-0-|

Guitar 1: Fill: [w/Distortion]
"Yeah yeah yeah," 
(0:57 - 1:07)(1:53 - 2:02)(2:56 - 3:16)
eb|------------------------------------|
Bb|------------------------------------|
Gb|----------9-9-9-9-----------7-7-7-7-|(x2)
Db|-7-7-7-7--9-9-9-9--5-5-5-5--7-7-7-7-|
Ab|-7-7-7-7--7-7-7-7--5-5-5-5--5-5-5-5-|
Eb|-5-5-5-5-----------3-3-3-3----------|

Guitar 1: Verse 2: [w/Distortion]
"It doesn't have to be like this..."
(1:07 - 1:12)
eb|-------------------------------------|
Bb|-------------------------------------|
Gb|----------9-9-9-9------------7-7-7-7-|
Db|-7-7-7-7--9-9-9-9--4-4-4-4---7-7-7-7-|
Ab|-7-7-7-7--7-7-7-7--4-4-4-4---5-5-5-5-|
Eb|-5-5-5-5-----------2-2-2-2-----------|
   |-------------------p.m.-----------|

Guitar 1: Verse 2:(Cont.) [w/Distortion]
(1:13 - 1:17)
"We'll make belive...."
eb|-------------------------------------|
Bb|-------------------------------------|
Gb|----------9-9-9-9------------7-7-7-7-|
Db|-7-7-7-7--9-9-9-9--4-4-4-4---7-7-7-7-|
Ab|-7-7-7-7--7-7-7-7--4-4-4-4---5-5-5-5-|
Eb|-5-5-5-5-----------2-2-2-2-----------|
    |-------p.m.----|

Guitar 1: Verse 2:(Cont.) [w/Distortion]
"Stop looking at me with those eyes..."
(1:18 - 1:26)
eb|-------------------------------------|
Bb|-------------------------------------|
Gb|----------9-9-9-9------------7-7-7-7-|
Db|-7-7-7-7--9-9-9-9--4-4-4-4---7-7-7-7-|
Ab|-7-7-7-7--7-7-7-7--4-4-4-4---5-5-5-5-|
Eb|-5-5-5-5-----------2-2-2-2-----------|

Guitar 2: Solo:[w/Distortion + Wah + Chorus]
(2:01-2:02)(3:04 - 3:05)
   ^
eb|------|(what pedeal is up, and constantly pick up and down at this)
Bb|------|
Gb|------|
Db|------|
Ab|-17/0-|
Eb|------|

(2:03 - 2:07)(2:46-2:49)(3:01 - 3:04)
    ^ v ^ V ^ V ^ v ^
eb|--------------------|
Bb|--------------------|
Gb|---9---6-7-6-7------|
Db|-7---7---------9-7--|(x2)
Ab|--------------------|
Eb|--------------------|

(2:08 - 2:10)
    ^
eb|-----------------------------------|
Bb|-----10----------------------------|
Gb|---9----9-9-9-9-9-9-9-9-9-9--------|
Db|-7---------------------------------|
Ab|-----------------------------------|
Eb|-----------------------------------|

(2:59 - 3:01)
    ^
eb|-----------------|
Bb|-----10----------|
Gb|---9----9--------|
Db|-7--------7-7-7~-|
Ab|-----------------|
Eb|-----------------|
    
(2:11 - 2:15) (3:06 - 3:11)
 v ^ v  ^ v  ^ ^
eb|-----------------------------------------------------|
Bb|-10-x-12-x-14-x-10\9/10--10-x-12-x-14-16-16-16-16-16-|
Gb|-----------------------------------------------------|
Db|-----------------------------------------------------|
Ab|-----------------------------------------------------|
Eb|-----------------------------------------------------|

(2:16 - 2:18)(3:12 - 3:16)
    v
eb|--------------------------------------------|
Bb|--------------------------------------------|
Gb|---------9----------9----------9----------9-|
Db|-9-11h-9----9-11h-9----9-11h-9----9-11h-9---|
Ab|--------------------------------------------|
Eb|--------------------------------------------|

(2:50 - 2:53)
    ^
eb|-------------------------------|
Bb|-10-10-10-10-10-10-10-10-10-10-|
Gb|-------------------------------|
Db|-------------------------------|
Ab|-------------------------------|
Eb|-------------------------------|

(2:18)(2:54 -2: 56)
    v             ^ V            ^ V
eb|----------------------------------------|
Bb|----------------------------------------|
Gb|----------------------------------------|
Db|-12p-10--------x-12p-10-----------------|
Ab|--------13-13-----------12-12-x-7-7-7/0-|
Eb|----------------------------------------|

End on:
Guitar 1: 
(3:16 - 3:20)
eb|-----|
Bb|-----|
Gb|-----|
Db|-7\0-|
Ab|-7\0-|
Eb|-5\0-|

Guitar 2:
(3:16 - 3:20)
    v (Trembolo----------------------)
eb|-----------------------------------|
Bb|-----------------------------------|
Gb|-----------------------------------|
Db|-7~--------------------------------|
Ab|-----------------------------------|
Eb|-----------------------------------|

[Lyrics]
Say you will, Say you might.
Could you stay a while?
There is time.
If I had known, I'd be walking home alone.

Please won't you just calm down.
Maybe we can talk this out.
You'd never even heard my side.
And I'm not sorry.
She was a big mistake.
I didn't mean to hesitate.
The tension's falling in my hands,
Why can't you understand?
Ye-ah

They're out to get me, You've got to believe me.

Say you will, Say you might.
But please don't say goodbye tonight.
'Cause I had planned, 
That you'd try to change your mind,
Could you stay a while? 
There is time.
If I had known, I'd be walking home alone.

Yeah Yeah Ye-ah.
Yeah Yeah Ye-ah Yeah.
Yeah Yeah Ye-ah.

It doesn't have to be like this.
Now please this off my wrist.
We'd make believe this never happened.
Let it go it's in the past and,
Stop looking with with those eyes.
Acting like you're so surprised.
What else can I possibly say?
She had it comming anyway.
Ye-ah

They're out to get me, You've got to untie me.

Say you will, Say you might.
But please don't say goodbye tonight.
'Cause I had planned, 
That you'd try to change your mind,
Could you stay a while? 
There is time.
If I had known, I'd be walking home alone.


Yeah Yeah Ye-ah.
Yeah Yeah Ye-ah Yeah.
Yeah Yeah Ye-ah.

(Solo)

Repeat Chorus (2x)

[Tab Language Key]

| V - Wah Pedal is down
| ^ - wah pedal is up
| ~ - Vibreto
| b - Bend Note
|() - Bend to fret pitch
| x - Muted Note
| . - Palm Mute
| + - Harmonics
| / - Slide up
| \ - Slide down
| p - Pull off
| h - Hammer on

================================================================================
            
Submit corrections

comments powered by Disqus
↑ Back to top | Wakefield Tabs for Say You Will. Lyrics for acoustic guitar and electric guitar. 1 Tablatures and chords are parodies/interpretations of the original songs. You may use it for private study, scholarship, research or language learning purposes only