» » »

Wakefield, Positive Reinforcement Tabs (ver.1)

Artists:  A B C D E F G H I J K L M N O P Q R S T U V W X Y Z # 

Positive Reinforcement Tabs (ver.1)

Wakefield Tabs
Rating:
0/5 (0 votes)
Positive Reinforcement lessons Tabs too difficult? Try these video lessons and learn fast
                Song - Positive Reinforcement
Band - Wakefield

intro - ????

e|---------------|
B|---------------|
G|-3333----------|
D|-3333-5-3333-1-|  4x's
A|-1111-5-3333-1-|
D|------5-3333-1-|

Verse...

e|-------------------|
B|-------------------|
G|-55----------------|
D|-55-33-55-11111111-| 2x's
A|-33-33-55-11111111-|
D|----33-55-11111111-|

Pre-Chourse

e|-------------------------|
B|-------------------------|
G|-555-------555-----------|
D|-555-33-55-555-33-55-111-| 2x's
A|-333-33-55-333-33-55-111-|
D|-----33-55-----33-55-111-|

Chourse

e|-----------------------------|
B|-----------------------------|
G|-777777----------------------|
D|-777777-777777-555555-777777-| 2x's
A|-555555-777777-555555-777777-|
D|--------777777-555555-777777-|

e|---------------|
B|---------------|
G|-3333----------|
D|-3333-5-3333-1-|  2x's
A|-1111-5-3333-1-|
D|------5-3333-1-|

Verse...

e|-------------------|
B|-------------------|
G|-55----------------|
D|-55-33-55-11111111-| 2x's
A|-33-33-55-11111111-|
D|----33-55-11111111-|

Pre-Chourse

e|-------------------------|
B|-------------------------|
G|-555-------555-----------|
D|-555-33-55-555-33-55-111-| 2x's
A|-333-33-55-333-33-55-111-|
D|-----33-55-----33-55-111-|

Chourse

e|-----------------------------|
B|-----------------------------|
G|-777777----------------------|
D|-777777-777777-555555-777777-| 4x's
A|-555555-777777-555555-777777-|
D|--------777777-555555-777777-|
            
Submit corrections

comments powered by Disqus
↑ Back to top | Wakefield Tabs for Positive Reinforcement. Lyrics for acoustic guitar and electric guitar. Tablatures and chords are parodies/interpretations of the original songs. You may use it for private study, scholarship, research or language learning purposes only