» » »

Wakefield, Honesty Tabs (ver.1)

Artists:  A B C D E F G H I J K L M N O P Q R S T U V W X Y Z # 

Honesty Tabs (ver.1)

Wakefield Tabs
 Rating:
4.2/5 (5 votes)
Honesty lessons Tabs too difficult? Try these video lessons and learn fast
                -----------------------------------------------------------------------------
-----------------------------------------------------------------------------


Intro 3x (Clean)
e|---------------------------------------------------------------------------|
B|---------------------------------------------------------------------------|
G|-----7-7-7-7-------4-4-4-4------2-2-2-2------------------------------------|
D|-----7-7-7-7-------4-4-4-4------2-2-2-2-------5-5-5-5----------------------|
A|-5-5-----------2-2----------0-0---------------5-5-5-5----------------------|
E|------------------------------------------3-3------------------------------|

Verse 2x (Distorted)
e|---------------------------------------------------------------------------|
B|---------------------------------------------------------------------------|
G|-7---4------7--------------------------------------------------------------|
D|-7-5-4(8x)--7(8x)-5--------------------------------------------------------|
A|-5-5-2------5-----5(8x)----------------------------------------------------|
E|---3--------------3--------------------------------------------------------|

Chorus 2x (Distorted)
e|-------------------------------------------------(on last time do this)----|
B|---------------------------------------------------------------------------|
G|-7---4------7---4------7---4------7------------7777-9999-10101010-12121212-|
D|-7-5-4(8x)--7-5-4(8x)--7-5-4(8x)--7(8x)-7------xxxx-xxxx-x-x-x-x--x-x-x-x--|
A|-5-5-2------5-5-2------5-5-2------5-----7(8x)--5555-7777-8-8-8-8--10101010-|
E|---3----------3----------3--------------5----------------------------------|

Intro 3x
Verse 2x
Chorus 2x

Bridge 4x
e|---------------------------------------------------------------------------|
B|---------------------------------------------------------------------------|
G|-7/9999-9/10101010-10/12121212-12/14141414---------------------------------|
D|-7/xxxx-9/x-x-x-x--10/x-x-x-x--12/x-x-x-x----------------------------------|
A|-5/7777-7/8-8-8-8--8-/10101010-10/12121212---------------------------------|
E|---------------------------------------------------------------------------|

Slow Part 1x
e|---------------------------------------------------------------------------|
B|---------------------------------------------------------------------------|
G|-77------4-44444444--------------------------------------------------------|
D|-77--55--4-44444444--------------------------------------------------------|
A|-55--55--2-22222222--------------------------------------------------------|
E|-----33----xxxxxxxx--------------------------------------------------------|

Chorus 2x

e|---------------------------------------------------------------------------|
B|---------------------------------------------------------------------------|
G|---(end on)-7~-------------------------------------------------------------|
D|------------7~-------------------------------------------------------------|
A|------------5~-------------------------------------------------------------|
E|---------------------------------------------------------------------------|

=============================================================================
| /  slide up
| \  slide down
| h  hammer-on
| p  pull-off
| ~  hold
| x  Mute note
=============================================================================
            
Submit corrections

comments powered by Disqus
↑ Back to top | Wakefield Tabs for Honesty. Lyrics for acoustic guitar and electric guitar. Tablatures and chords are parodies/interpretations of the original songs. You may use it for private study, scholarship, research or language learning purposes only