» » »

Goodbye Tabs (ver.1)

Artists:  A B C D E F G H I J K L M N O P Q R S T U V W X Y Z # 

Goodbye Tabs (ver.1)

Wakefield
Rating:
0/5 (0 votes)

Tabs too difficult? Try these video lessons and learn fast.
                (Intro)
-----------------------------------------------------------------------
SONG NAME- GOODBYE
Band Name - WAKEFIELD
-------------------------------------------------------------------------------

Tuning: ½ step down(Eb Ab Db Gb Bb Eb)

e|----------------------------------------|
B|------------------------------2h3p2-----|
G|------2-------2-------2-----2-----------|        REPEAT 5 x's
D|----2---2-------2-------2---------------|
A|--0-------0-------0---------------------|
E|------------4-------2-----2-------------|

  Guitar 1
e|---------------------------------------------------------------|
B|---------------------------------------------------------------|
G|--6-7-6--6-7-6-6-7-9-7—6h7p6-----6-7-6-6-7-9-6----6-7-9-7-6----|
D|-7------7-----7-------------7---7-----7---------7-----------7--|
A|---------------------------------------------------------------|
E|---------------------------------------------------------------|
  Guitar 2
e|-------------------------------------------------|
B|-------------------------------------------------|
G|--------------------7--7-----9--9----------------|
D|--7--7-----4--4-----7--7-----9--9----------------|
A|--7--7-----4--4-----5--5-----7--7----------------|
E|--5--5-----2--2---------------------0--2---------|
    this is my 1st tab. it sounds perfect. im tryin
    to get the rest of the song. WAKEFIELD ROCKS!!
            
Tabs too difficult? Try these video lessons and learn fast.


comments powered by Disqus
↑ Back to top | Tablatures and chords are parodies/interpretations of the original songs. You may use it for private study, scholarship, research or language learning purposes only