» » »

Waits Tom, Ol Bass tabs (ver.1)

Artists:  A B C D E F G H I J K L M N O P Q R S T U V W X Y Z # 

Ol Bass tabs (ver.1)

Waits Tom Tabs
 Rating:
4/5 (4 votes)
Ol lessons Tabs too difficult? Try these video lessons and learn fast
                "(5)




  Intro
G|--------------------------------------------------------|
D|--------------------------------------------------------|
A|------------------0--1----1---1--2----2--4----4---------|
E|--2-----2---2--4---------------------------------2--2-2-|

 Verse
G|--------------------------------------------------------|
D|--------------------------------------------------------|
A|--------------0--1---1--1---1-2---2-4----4--------------|
E|-2-2--2--2-4--------------------------------2---2--2----|


G|--------------------------------------------------------|
D|--------------------------------------------------------|
A|-------------0--1---1--1---1-2---2-2--2-4----4-4-4------|
E|-2-2---2--4---------------------------------------------|

 Refrain  
G|--------------------------|
D|--------------------------|   X2
A|--------1---1-2--2-4--4---|
E|--2---2-------------------|   X3 on the last time through, then follow the ending


G|-----------------------------------|
D|-----------------------------------|
A|--------1---1-2--2-2--2-4---4-4----|
E|--2---2----------------------------|

G|------------------------------------------------------------------------------|
D|--------------------------------------1--1-1----------------------------------|
A|------------4--4-4-----------4--4-4---------------------4--4--4--4--4--4--4--4|
E|---2--2-2------------2--2-2-------------------4--4-4--------------------------|
"            
Submit corrections

comments powered by Disqus
↑ Back to top | Waits Tom Bass for Ol. Lyrics for acoustic guitar and electric guitar. Tablatures and chords are parodies/interpretations of the original songs. You may use it for private study, scholarship, research or language learning purposes only