» » »

Waits Tom, Jockey Full Of Bourbon Bass tabs (ver.2)

Artists:  A B C D E F G H I J K L M N O P Q R S T U V W X Y Z # 

Jockey Full Of Bourbon Bass tabs (ver.2)

Waits Tom Tabs
 Rating:
4/5 (4 votes)
Jockey Full Of Bourbon lessons Tabs too difficult? Try these video lessons and learn fast
                Artist - Tom Waits
The song - Jockey Full Of Borubon
The album - Rain Dogs and Beautiful Maladies

Standard tuning (E)

It looks really crazy, but it is very easy 
and fun to play.

Intro:

G-----------------------
D---9--9--9--9--9--9--9-
A--7--9--9--7--7--9--9--
E----7--7--7--7--7--7---

Verse:

G---------------------------------------
D----9--9--9--9--9--9--9--9--9--9--9--9-
A---7--7--7--7--9--9--9--9--7--7--7--7--
E--7--7--7--7--7--7--7--7--7--7--7--7---

G-------------------
D----9--9--9--9--9--
A---9--9--9--9--7---
E--7--7--7--7--7--7-

Chorus:

G-----------------------------------------------
D----7------9----------9---7------9----------9--
A---7--7-10----9--7-10----7--7-10----9--7-10----
E--5----------7-1--------5----------7-1---------


Derek VonGoetzinger
            
Submit corrections

comments powered by Disqus
↑ Back to top | Waits Tom Bass for Jockey Full Of Bourbon. Lyrics for acoustic guitar and electric guitar. Tablatures and chords are parodies/interpretations of the original songs. You may use it for private study, scholarship, research or language learning purposes only