» » »

Waits Tom, I Hope That I Dont Fall In Love With You Tabs (ver.1)

Artists:  A B C D E F G H I J K L M N O P Q R S T U V W X Y Z # 

I Hope That I Dont Fall In Love With You Tabs (ver.1)

Waits Tom Tabs
 Rating:
4/5 (4 votes)
I Hope That I Dont Fall In Love With You lessons Tabs too difficult? Try these video lessons and learn fast
1
                This is the Tom Waits's song called 'I hope that I don't fall in
love with you', which I tabbed from the recording 'The Early Years'.
I think it is a faithfull transcription, at least for the beginning
of the song ( I didn't tabbed all the variations that occur after),
and for possible misprints.

I didn't write all the lyrics, because they have already been sent to
this group. ( I tabbed some others Tom Waits songs. Does it interest
anyone . I prefer answers by e-mail).

 INTRO :
 -------

E ||--------------|---------------|--------------|--------------|
B ||--------1-----|-----1-~-1-----|--------1-----|--------1-----|
G ||--------0-----|-----2-~-2-----|--------0-----|--------0-----|
D ||-----2-----0--|---------------|-----3-----3--|-----3-----3--|
A ||--3-----------|---------------|--------------|--------------|
E ||--------------|--1---------0--|--3--------3--|--3--------3--|


|--------------|--------------|                   |---------------|
|--------0-----|--------0-----| The same pattern  |---------1-----|
|--------0-----|--------0-----| is played again   |---------2-----|
|-----3-----3--|-----3-----3--| with the second   |-----3------0--|
|--------------|--------------| bar replaced by   |---------------|
|--3--------3--|--3--------3--|                   |--1------------|


1st verse :
-----------

|-----------------|-------------------|--------------|--------------|
|--------1--------|---------1---------|--------1-----|--------1-----|
|--------0--------|---------2---------|--------0-----|--------0-----|
|-----2-----0-----|-----3-------0-----|-----3-----3--|-----3-----3--|
|--3--------------|-------------------|--------------|--------------|
|-----------------|--1----------------|--3--------3--|--3--------3--|

   I don't want to   fall in love with   you
   Falling...                            <-------------------- 
|--------------|--------------|                               |
|--------0-----|--------0-----|                               |
|--------0-----|--------0-----|                               |
|-----3-----3--|-----3-----3--|                               |
|--------------|--------------|                               |
|--3--------3--|--3--------3--|                               |
                                                              |
                           'cause  (back to the beginning) --- 

|-----------------|-------------------|-----------------|--------------|
|--------1--------|---------1---------|--------3--------|--------1-----|
|--------2--------|---------0---------|--------0--------|--------3-----|
|-----3-----0-----|-----2-------0-----|-----0-----0-----|-----2-----2--|
|-----------------|--3----------------|-----------------|--3-----------|
|--1--------------|-------------------|--3--------------|--------------|

   The music plays   you display your    heart for me to see        I


|-----------------|-------------------|--------------|
|--------1--------|---------0---------|--------1-----|
|--------2--------|---------0---------|--------2-----|
|-----3-----3-----|-----2-------2-----|-----3-----3--|
|-----------------|-------------------|--------------|
|--1--------------|--0----------------|--1-----------|

   had a beer and    now I hear your     calling out to

|--------------|--------------|--------------|--------------|
|--------1-----|--------1-----|--------0-----|--------0-----|
|--------0-----|--------0-----|--------0-----|--------0-----|
|-----3-----3--|-----3-----3--|-----3-----3--|-----3-----3--|
|--------------|--------------|--------------|--------------|
|--3--------3--|--3--------3--|--3--------3--|--3--------3--|

   me

|-----------------|-------------------|------------------|--------------|
|--------1--------|-------------------|--1---------------|--1--0--------|
|--------0--------|-------------------|-----0---------0--|--0--0-----0--|
|-----2-----2-----|-------------------|--------2-h-3-----|--------3-----|
|--3--------------|-------------------|--3---------------|--------------|
|-----------------|--1-~-1---3-~-3----|------------------|--3-----------|

   I hope I don't    fall in love with   you    (musical part)

|--------------|--------------|
|--1-----0-----|--1-----3-----|
|-----0-----0--|-----0-----0--|
|--------------|--------------|
|--3-----------|--0-----2-----|
|--------3-----|--------------|




etc...


             LAPP, chemin de Bellevue, BP 110
             74941 Annecy-le-Vieux
             FRANCE
            
Submit corrections

comments powered by Disqus
↑ Back to top | Waits Tom Tabs for I Hope That I Dont Fall In Love With You. Lyrics for acoustic guitar and electric guitar. 1 Tablatures and chords are parodies/interpretations of the original songs. You may use it for private study, scholarship, research or language learning purposes only