» » »

I Dont Wanna Grow Up Bass tabs (ver.1)

Artists:  A B C D E F G H I J K L M N O P Q R S T U V W X Y Z # 

I Dont Wanna Grow Up Bass tabs (ver.1)

Waits Tom
Rating:
0/5 (0 votes)

Tabs too difficult? Try these video lessons and learn fast.
                VERSE 1:
G----------------------------------------
D----------------------------------------
A-5---5---5---5---5---5---5---5---5---5--
E---5---5---5---5---5---5---5---5---5---5

CHORUS 1:
G----------------------------------
D----------------------------------
A-2-2----------0-0--2-2----------00
E-----2-2--3-3----------2-2--3-3---

VERSE 2:
G--------------------------------------
D--------------------------------------
A-5---5---9-8-7-6--5---5---5---5---5---
E---5---5------------5---5---5---5---5-

CHORUS 2:
G----------------------------------
D----------------------------------
A-2-2----------0-0--2-2----------00
E-----2-2--3-3----------2-2--3-3---

VERSE 3:
G---------------------------------
D---------------------------------
A-5---5---5---5---5---5---5---5---
E---5---5---5---5---5---5---5---5-

I Don't Wanna... Part:
G---------------------------------------------------------
D---------------------------------------------------------
A-2-2-----2-2-----2-2-----2-2-----2-2-----2-2--------0-5--
E-----2-2-----2-2-----2-2-----2-2-----2-2-----2-2--2-----5

(That part goes right into Verse 4)

VERSE 4:
G---------------------------------
D---------------------------------
A-5---5---5---5---5---5---5---5---
E---5---5---5---5---5---5---5---5-

CHORUS 3:
G----------------------------------
D----------------------------------
A-2-2----------0-0--2-2----------00
E-----2-2--3-3----------2-2--3-3---

VERSE 5:
G---------------------------------
D---------------------------------
A-5---5---5---5---5---5---5---5---
E---5---5---5---5---5---5---5---5-

I Don't Wanna... Part:
G-------------------------------------------------------------
D-------------------------------------------------------------
A-2-2-----2-2-----2-2-----2-2-----2-2-----2-2-------0-5--5--5-
E-----2-2-----2-2-----2-2-----2-2-----2-2-----2-2--2----5--5--

That should be 100% correct.  I'm not sure about the little fill-in in the 
2nd verse might be off, but it sounds right.
            
Tabs too difficult? Try these video lessons and learn fast.




comments powered by Disqus
↑ Back to top | Tablatures and chords are parodies/interpretations of the original songs. You may use it for private study, scholarship, research or language learning purposes only