» » »

Waiting For Fisher, Just A Rift Tabs (ver.1)

Artists:  A B C D E F G H I J K L M N O P Q R S T U V W X Y Z # 

Just A Rift Tabs (ver.1)

Waiting For Fisher Tabs
 Rating:
4/5 (4 votes)
Just A Rift lessons Tabs too difficult? Try these video lessons and learn fast
                E------------------------------------------------------
B------------------------------------------------------
G-----------------77--------77---------------------------
D---77--99--55----77---77---77---77--7----------------------------------
A---77--99--55----55---77---55---77--7----------------------------
E---55--77--33---------55--------55--5--------------------------

E---------------------------------------------------
B--------------------------------------------------
G---77-----77----------------------------------------
D---77-77--77--77--7----99---55-/-99--55--5---------------------------
A---55-77--55--77--7----99---55-/-99--55--5---------------------------
E------55------55--5----77---33-/-77--33--3--------------------
            
Submit corrections

comments powered by Disqus
↑ Back to top | Waiting For Fisher Tabs for Just A Rift. Lyrics for acoustic guitar and electric guitar. Tablatures and chords are parodies/interpretations of the original songs. You may use it for private study, scholarship, research or language learning purposes only