» » »

Waiting For Fisher, Into The Night Tabs (ver.1)

Artists:  A B C D E F G H I J K L M N O P Q R S T U V W X Y Z # 

Into The Night Tabs (ver.1)

Waiting For Fisher Tabs
Rating:
0/5 (0 votes)
Into The Night lessons Tabs too difficult? Try these video lessons and learn fast
                Intro

E--13--10--12--10--13--10--12--10---------------------------------
B-----------------------------------------13--10--12--10--13--10--12--10----------
G-------------------------------------------------
D----------------------------------------------------
A-----------------------------------------------------
E-------------------------------------------------------

verse
E------------------------------------------------------
B---------------------------------------------------
G------------------------------------2222---5555--2222--5555-------------------------
D---2222--5555---2222--5555--2222---5555--2222--5555---------------------------------
A---2222--5555---2222--5555--0000---3333--0000--3333------------------------------------
E---0000--3333---0000--3333---------------------------------------------

Second time through verse add this at the end

E---------------------------------------------------
B-------------------------------------------------
G---44444444-44444444--------2-------------------------------------
D---44444444-44444444--------2---let ring---------------------------------
A---22222222-22222222--------0-------------------------------------
E----------------------------------------------

Chorus maybe?

E-13-10-12-10-13-10-12-10--------------------------------------------
B------------------------------------------13-10-12-10-13-10-12-10---
G------------------------------------------------------------------------------------
D----------------------------------22222222--------------------------------------55555555--------
A----------------------------------22222222--------------------------------------55555555-------
E----------------------------------00000000--------------------------------------33333333------

Bridge ish thing


E--8-5-7-5-8-5-7-5------------------------------------------------
B-----------------------8-5-7-5-8-5-7-5---------------------
G------------------------------------------------------
D------------------------------------------------------
A------------------------------------------------
E----------------------------------------------
            
Submit corrections

comments powered by Disqus
↑ Back to top | Waiting For Fisher Tabs for Into The Night. Lyrics for acoustic guitar and electric guitar. Tablatures and chords are parodies/interpretations of the original songs. You may use it for private study, scholarship, research or language learning purposes only