» » »

Dreams Tabs (ver.1)

Artists:  A B C D E F G H I J K L M N O P Q R S T U V W X Y Z # 

Dreams Tabs (ver.1)

Waiting For Fisher
Rating:
0/5 (0 votes)

Hard to play? Try these video lessons and learn fast.
                Dreams by Waiting For Fisher
Written by Daniel Barnes


E---------------------------------------------------
B---------------------------------------------------
G-----------------------------------------------------------------------------------let last 7 ring-------
D--------7-----7----7-----7------7----7------7-----7----------------------------7----7---7---
A---5-5---5-5---5-5--5-5---5-4-4---4-4---4-4---4-4----4--0--2-/-4---4-/-7---7-7---77—77--
E----------------------------------------------------

E---------------------------------------------------------
B-----------------------------------------------------------
G--7777777777777777--7777777777777777------------6666666666666666-------
D--7777777777777777--7777777777777777------------6666666666666666---
A--5555555555555555--4444444444444444---4--0—2/4-4444444444444444------
E--------------------------------------------------------

E-------------------------------------------------
B-----------------------------------------------
G-----9999999999999999-------------------------------------
D-----9999999999999999----------------------------------------
A—4/7—7777777777777777----------------------------------------------
E----------------------------------------------------

Chorus

E------------------------------
B-------------------------------
G-7777777777777777--7777777777777777-----22222222-----6666666666666666----
D-7777777777777777--7777777777777777-----22222222-----6666666666666666----
A-5555555555555555--4444444444444444-4-0-00000000—2/4-4444444444444444-----
E------------------------

E------------------------------------
B------------------------------------
G-----9999999999999999--------------------------
D-----9999999999999999---------------------------
A—4/7-7777777777777777-------------------------------
E-------------------------------------

Bridge

E------------------------------
B-----------------------------
G-------------------------------
D------7------7-----7-----7------7------7-----7------7-------------------11-----11------11-
A-5-5---5-5----5-5---5-5---5-4-4---4-4---4-4---4-4----4-0-2/4-4/7-7/9-99-----99---99
E----------------------------------
Intro x2
Verse x4
Chorus
Intro
Verse x3
Chorus
Bridge
Chours
            
Hard to play? Try these video lessons and learn fast. | Correct




comments powered by Disqus
↑ Back to top | Tablatures and chords are parodies/interpretations of the original songs. You may use it for private study, scholarship, research or language learning purposes only