>
 >
TrinitrotuluèNe

TrinitrotuluèNe Guitar Tabs

Vulgaires Machins - TrinitrotuluèNe chords, tabs, tablatures, lyrics

Guitar lessons | Add/correct | Request | Top 50 tabs Artists:  A B C D E F G H I J K L M N O P Q R S T U V W X Y Z 0-9

TrinitrotuluèNe Guitar Tabs – Vulgaires Machins

CD, Sheet music, Poster

Do you like TrinitrotuluèNe? Share with your friends now
Tabs

Standard tuning

INTRO:        
(I)
  E C    E C  G  A    E  G  F# E F#  C   G  A
|------|------------|--------------------------|
|------|------------|--------------------------|
|-9----|-9----12-14-|-9--12-11-9-11------12-14-|
|-9-10-|-9-10-12-14-|-9--12-11-9-11--10--12-14-|
|-7-10-|-7-10-10-12-|-7--10-9--7-9---10--10-12-|
|---8--|---8--------|----------------8---------|
(II)
|------------------------------------------|
|---------------------7/8/10/12-15-13-12---|
|--9999-12-11-9-11---8---------------------| x4
|------------------------------------------|
|------------------------------------------|
|------------------------------------------|
(III)
  E D E A B  E D E A D
|------------------------|
|------------------------|
|-9-7-9------9-7-9-------|
|-9-7-9-7-9--9-7-9-7-12--|
|-7-5-7-7-9--7-5-7-7-12--|
|-------5-7--------5-10--|

VERSE: (bass)

Je marchais dans la rue...
...lapin dans le ciel 

CHORUS:

       E  G E  G E  G C D
|-----------------------------|
|-----------------------------|
|---------------------5-7-----|
|------2--5-2--5-2--5-5-7-----|
|------2--5-2--5-2--5-3-5-----|
|-5-3--0--3-0--3-0--3---------|

je traverse une ruelle... 
...le cimetière 

(repeat intro [iii])

SOLO:

|--------------------|
|--------------------|
|-9-7-9---7-9--7-9-9-|
|------9b----9-------|
|--------------------|
|--------------------|

|------------------------12-15b-----------------|
|------------------12-14--------12-12b-12-------|
|-9-11-11b---11-12-----------------------15p14--|
|-----------------------------------------------|
|-----------------------------------------------|
|-----------------------------------------------|

|------------15-17-18b--|
|---12-15-17------------|
|-12--------------------|
|-----------------------|
|-----------------------|
|-----------------------|

VERSE: (bass)

Un jour je laisserai ma place ...
.. été bête 

(repeat chorus)

pis ça sera resté noir ...
...bouffer notre chair 

  E D E A G  E D E A D
|------------------------|
|------------------------|
|-9-7-9------9-7-9-------|
|-9-7-9-7-5--9-7-9-7-12--|
|-7-5-7-7-5--7-5-7-7-12--|
|-------5-3--------5-10--|

(repeat intro [ii])

Ending: 

b|-12b-| x4
g|-14b-|

-------------------------------------------------

I forgot that i was tabbing this cause i just got lazy.. haha
Well here it is again :D Jeez i spent so little time on the solo. :S
Apoligies to those Francs who can't understand English.
(my French is bad but you'll figure it out hopefully)

Paul G





Comments


Popular Vulgaires Machins tabs & chords
Faut Pas S Leurrer Bass Tabs
Papopinage 1 Bass Tabs
Puit Sans Fond Chords
Aimer Le Mal 1 Tabs
Cocainomane Tabs
Compter Les Corps Tabs
Faut Pas Sleurer Tabs
La Chasse Est Ouverte Tabs
RoméO Et Yvette Tabs
Triple Meutre Et Suicide Rate Ukulele


Song lyrics



↑ Back to top | Tablatures and chords are parodies/interpretations of the original songs. You may use it for private study, scholarship, research or language learning purposes only
© 2014 AZChords.com Contact us | Privacy policy | DMCA | Add/correct tabs | Request tabs | Top 50 tabs