>
 >
RoméO Et Yvette

RoméO Et Yvette Guitar Tabs

Vulgaires Machins - RoméO Et Yvette chords, tabs, tablatures, lyrics

Guitar lessons | Add/correct | Request | Top 50 tabs Artists:  A B C D E F G H I J K L M N O P Q R S T U V W X Y Z 0-9

RoméO Et Yvette Guitar Tabs – Vulgaires Machins

CD, Sheet music, Poster

Do you like RoméO Et Yvette? Share with your friends now
Tabs

Standard Tuning

INTRO:

(Part I)

Guitar 1:

  E   A  F# x5
|-----------|
|-----------|
|-----------|
|-2---7--5--|
|-2---7--5--|
|-0---5--2--|

Guitar 2:
                  x5
|------------------|
|---5--------------|
|-4--------4h6p4---|
|----------------6-|
|------------------|
|------------------|

(Part II)

Guitar 1:

|----------------------|
|----------------------|
|----------------------|
|---------2----2----2--|
|---4---2----0---------|
|-4---------------0----|
pm all.................

Guitar 2:

|-------|-------------------------------------------|
|-------|--------------------------------5----------|
|-----4-|------------------------------6---4--------|
|-6-7---|---6---6h7p6h7etc.--6-4-6-7-6-------7-6--4-|
|-------|-7---7-------------7-----------------------|
|-------|-------------------------------------------|

VERSE:

  C#    E     A     E
|-------------------------|
|-------------------------|
|-6---6-9---9-------9---9-|
|-6---6-9---9-7---7-9---9-|
|-4---4-7---7-7---7-7---7-|
|-------------5---5-------|

Guitar 2 does little riffs:

|--------|       |---|
|--------|       |---|
|--------|       |---|
|-7-6--4-|       |-6-|
|--------|       |---|
|--------|       |---|

Un cover dance de Cash Johnny dans le tapis ...
...Pour que ses seins soient plus gros et plus ronds 

CHORUS:

  C# A  F# B
|-------------|
|-------------|
|-6--------4--|
|-6--7--4--4--|
|-4--7--4--2--|
|----5--2-----|

Y rêve depuis des décennies ...
...Y s'fout pas mal du prix

Keep playing B

La peau c'est toute sa vie 
Elle c'est lui 

Guitar 2 plays the following:

|---5-4-4-|
|-4-------|
|---------|
|---------|
|---------|
|---------|

INTRO Part II again

VERSE again

Pendant ce temps Yvette elle terminait sa chirurgie...
...mais maudit qu'ça a l'air pesant 

CHORUS again

Roméo et Yvette sont toujours aussi malheureux ...
...Le silicone est dieu 
De leur minable vie à deux 

SOLO with guitar 1 playing verse chords (stil to finish)

|---5-7--7-5----------------------------------------|
|-5----------5--------------------------------------|
|---------------------------------------------------|
|---------------------------------------------------|
|---------------------------------------------------|
|---------------------------------------------------|


CHORUS again

Ending Chords:

  B  G# B  G  B  C#
|------------------|
|------------------|
|-4-----4-----4--6-|
|-4--6--4--5--4--6-|
|-2--6--2--5--2--4-|
|----4-----3-------|

-------------------------------------------------

Paul G





Comments


Popular Vulgaires Machins tabs & chords
Faut Pas S Leurrer Bass Tabs
Faut Pas S Leurrer 1 Bass Tabs
Papopinage Bass Tabs
Je Chante Pour Les Sourds 1 Chords
Les Gens De L'occident Chords
Cocainomane Tabs
La Ballade Des ÉGoistes Tabs
Pesticide Tabs
Un Vote De Moin Tabs
Les Gens De Loccident Ukulele


Song lyrics



↑ Back to top | Tablatures and chords are parodies/interpretations of the original songs. You may use it for private study, scholarship, research or language learning purposes only
© 2014 AZChords.com Contact us | Privacy policy | DMCA | Add/correct tabs | Request tabs | Top 50 tabs