» » »

Vulgaires Machins, Puit Sans Fond Tabs (ver.1)

Artists:  A B C D E F G H I J K L M N O P Q R S T U V W X Y Z # 

Puit Sans Fond Tabs (ver.1)

Vulgaires Machins Tabs
 Rating:
4/5 (4 votes)
Puit Sans Fond lessons Tabs too difficult? Try these video lessons and learn fast
                ----------------------------------------------------------------------------
----------------------------------------------------------------------------
I noticed it was hard to find on the web so I decided to create mine.

Note 1 : That's how I play the song without other instruments, so that's
         why I tried to mix them with the guitar.
Note 2 : I usually play the intro as the rythm part describes it but I
         wrote the lead part for those who wanted to know.
Note 3 : You'll notice that I play the solo an octave lower than it's
         supposed to be, so you can raise it by two strings and two frets
         for the real version.
Note 4 : You can replace the solo with the bridge riff.
Note 5 : The last power chord used in the chorus is played as F|--9--| in
         the real song.                                       C|--9--|
                                                              G|--7--|
----------------------------------------------------------------------------
Two slides on the D string an then :

INTRO LEAD x6                  INTRO RYTHM x2
d|-------------------------|   d|-----------------------------------|
A|-------------------------|   A|-----------------------------------|
F|-------------------------|   F|------111111-----111111-13-13-999--|
C|-------------------------|   C|--9-9-111111-9-9-111111-13-13-999--|
G|--14---14---13-14-13-11--|   G|--9-9-9-9-9--9-9-9-9-9--11-11-777--|
D|-------------------------|   D|--7-7--------7-7-------------------|

VERSE x1
d|------------------------------------------------------------------|
A|------------------------------------------------------------------|
F|--------------9---------------9-----------------------------------|
C|--9---9---9---9---9---9---9---9-------------9999------------9999--|
G|--9---9---9---7---9---9---9---7-99994444666677779999444466667777--|
D|--7---7---7-------7---7---7-----777722224444----777722224444------|

CHORUS x2
d|------------------------------------------------------------------|
A|------------------------------------------------------------------|
F|------------------------------------------------------------------|
C|--9--9--99-9-9-9--4--4--44-4-4-4--6--6--66-6-6-6--2--2--22-2-2-2--|
G|--9--9--99-9-9-9--4--4--44-4-4-4--6--6--66-6-6-6--2--2--22-2-2-2--|
D|--7--7--77-7-7-7--2--2--22-2-2-2--4--4--44-4-4-4--0--0--00-0-0-0--|

INTRO LEAD x3 INTRO RYTHM x1

VERSE x1

CHORUS x2

SOLO x1
d|------------------------------------------------------------------|
A|------------------------------------------------------------------|
F|------------------------------------------------------------------|
C|------------------------------------------------------------------|
G|--14-11-13--13-11-13--14-11-13--13-11-13--14-11-13--13-11-13--9---|
D|------------------------------------------------------------------|

d|-------------------------------------------------------------------------|
A|-------------------------------------------------------------------------|
F|-------------------------------------------------------------------------|
C|-------------------------------------------------------------------------|
G|--9--13--14-13-11--13-11-13--14--13-11-13-11-13--13--13-11-13-11-13--13--|
D|-------------------------------------------------------------------------|

d|----------------------------------------------|
A|----------------------------------------------|
F|----------------------------------------------|
C|----------------------------------------------|
G|--9--13--14-13-11--13-11-13--14---13-9---7-6--|
D|----------------------------------------------|

BRIDGE
d|-----------------------------------------------------------------|
A|-----------------------------------------------------------------|
F|-----------------------------------------------------------------|
C|--------------9999------------9999------------9999------------9--|
G|--9999444466667777999944446666777799994444666677779999444466667--|
D|--777722224444----777722224444----777722224444----777722224444---|

CHORUS x2

ENDING x1
d|---------------------------------------------------------------|
A|---------------------------------------------------------------|
F|---------------------------------------------------------------|
C|--9999999944444444666666662222222299999999444444446-----6-2----|
G|--9999999944444444666666662222222299999999444444446-----6-2----|
D|--7777777722222222444444440000000077777777222222224-----4-0----|

INTRO LEAD x3 INTRO RYTHM x1
----------------------------------------------------------------------------
            
Submit corrections

comments powered by Disqus
↑ Back to top | Vulgaires Machins Tabs for Puit Sans Fond. Lyrics for acoustic guitar and electric guitar. Tablatures and chords are parodies/interpretations of the original songs. You may use it for private study, scholarship, research or language learning purposes only