» » »

Vulgaires Machins, Pop-Corn Tabs (ver.1)

Artists:  A B C D E F G H I J K L M N O P Q R S T U V W X Y Z # 

Pop-Corn Tabs (ver.1)

Vulgaires Machins Tabs
 Rating:
4/5 (4 votes)
Pop-Corn lessons Tabs too difficult? Try these video lessons and learn fast
1
                
Standard Tuning

INTRO:

Guitar 1:

(I)

   Am               Am               G
|--5-------------|--5-----------5---(3)-|
|--5-6-5-----(6)-|--5-6-5-----6---5-(3)-|
|--5-----7-5-----|--5-----7-5-------(4)-|
|--7-------------|--7---------------(5)-|
|----------------|----------------------|
|----------------|----------------------|

(II)

                      F     G
|-----------|-----------1--(--3--)-|
|-----------|---------1--1-(3---3)-|
|-----------|---------2----(4----)-|
|-7-8-7-5-7-|-7-8-7-5-3----(5----)-|
|-7-8-7-5-7-|-7-8-7-5-3----(5----)-|
|-.-.-.-.-.-|-.-.-.-.-1----(3----)-|

Guitar 2:

   Am F    G   A        F  A        F  G
|--5-----|--------------------------------|
|--5-----|--------------------------------|
|--5--10-|-12-----------------------------|
|--7--10-|-12--7--7--7--3--7--7--7--3--5--|
|-----8--|-10--7--7--7--3--7--7--7--3--5--|
|--------|-----5--5--5--1--5--5--5--1--3--|

VERSE:

   A   F     A  F  G  2x
|---------|-----------|
|---------|-----------|
|---------|*---------*|
|--7---3--|*-7--3--5-*|
|--7---3--|--7--3--5--|
|--5---1--|--5--1--3--|

J'ai entre les dents un morceau ...
...C'est le chaos 

CHORUS:

   A   C  B   G  2x
|----------------|
|----------------|
|----------------|
|--7---10-9---5--|
|--7---10-9---5--|
|--5---8--7---3--|

Pendant que dehors...
...s.v.p. pas de photos 

Then Guitar 1 does intro (i) during
Guitar 2 SOLO:

             2x                                   2x
|-------------|----------------------|-------------|
|-5-5-------5-|-5-5------------------|-5-5-------5-|
|*----7-5-7--*|-----7-5-7-5-4--7-5-4-|*----7-5-7--*|
|*-----------*|----------------------|*-----------*|
|-------------|----------------------|-------------|
|-------------|----------------------|-------------|

|-----5---------------|
|-5-5---5-------------|
|---------7-5-4---4---|
|---------------7---5-|
|---------------------|
|---------------------|

VERSE:

   A  F  G  3x
|-----------|
|-----------|
|-----------|
|--7--3--5--|
|--7--3--5--|
|--5--1--3--|

ça y est j'ai une oreille de bouchée ...
...j'ai perdu la confiance il n'en revient qu'à Dieu 

chorus again

Then...
Guitar 1:

|-------------|
|-5-----------|
|-.-----------|
|-------------|
|-----(7-5)---|
|---5-(.-.)-5-|
    .

Guitar 2:

  A  F   A  F   G   A   Am
|-------------------------|
|-------------------------|
|----10-----10--12--14--5-|
|-7--10--7--10--12--14--7-|
|-7--8---7--8---10--12--7-|
|-5------5--------------5-|


End with Guitar 1 playin intro (i) and guitar 2 solo

-------------------------------------------------
Another great song :D 

Paul G
            
Submit corrections

comments powered by Disqus
↑ Back to top | Vulgaires Machins Tabs for Pop-Corn. Lyrics for acoustic guitar and electric guitar. 1 Tablatures and chords are parodies/interpretations of the original songs. You may use it for private study, scholarship, research or language learning purposes only