>
 >
Papotinage

Papotinage Guitar Tabs

Vulgaires Machins - Papotinage chords, tabs, tablatures, lyrics

Guitar lessons | Add/correct | Request | Top 50 tabs Artists:  A B C D E F G H I J K L M N O P Q R S T U V W X Y Z 0-9

Papotinage Guitar Tabs – Vulgaires Machins

CD, Sheet music, Poster

Do you like Papotinage? Share with your friends now
Tabs
intro :   Guit 1 (Marie)

(1x)
e-|--------------------|
B-|--------------------|
G-|--7-----------------|
D-|--7--8--10--7-7-7-7-|
A-|--5--8--10--7-7-7-7-|
E-|-----6---8--5-5-5-5-|

 
La guitar 1 (Marie) joue:

(2x)      1                2                3                    4
e-|---------------|---------------|----------------------|---------------|
B-|---------------|---------------|----------------------|---------------|
G-|-7-7-7-7-7-7-7-|---------------|----------------------|---------------|
D-|-7-7-7-7-7-7-7-|-8-8-8-8-8-8-8-|-10-10-10-10-10-10-10-|-7-7-7-7-7-7-7-|
A-|-5-5-5-5-5-5-5-|-8-8-8-8-8-8-8-|-10-10-10-10-10-10-10-|-7-7-7-7-7-7-7-|
E-|---------------|-6-6-6-6-6-6-6-|--8--8--8--8--8--8--8-|-5-5-5-5-5-5-5-|

(2x)      1               2               3                  4
e-|---------------|---------------|---------------|---------------------|
B-|---------------|---------------|---------------|---------------------|
G-|-------12-14---|-------12-14---|-------12-14---|-12-14-12-14-12-14---|
D-|-12-15---------|-12-15---------|-12-15---------|---------------------|
A-|---------------|---------------|---------------|---------------------|
E-|---------------|---------------|---------------|---------------------|



 Couplet :  La guitar 1 et 2

(2x)        
e-|----------------------------------------------------------------|
B-|----------------------------------------------------------------|
G-|-7-7-7-7-7-7-7--------------------------------------------------|
D-|-7-7-7-7-7-7-7-8-8-8-8-8-8-8-10-10-10-10-10-10-10-7-7-7-7-7-7-7-|
A-|-5-5-5-5-5-5-5-8-8-8-8-8-8-8-10-10-10-10-10-10-10-7-7-7-7-7-7-7-|
E-|---------------6-6-6-6-6-6-6--8--8--8--8--8--8--8-5-5-5-5-5-5-5-|

Refrain:

La guitar 1 et 2

(1x)
e-|---------------------------|
B-|---------------------------|
G-|--7--7---------------------|
D-|--7--7--8--8--10-10--7--7--|
A-|--5--5--8--8--10-10--7--7--|
E-|--------6--6---8--8--5--5--|



Couplet :    La guitar 1 et 2

(2x)        
e-|----------------------------------------------------------------|
B-|----------------------------------------------------------------|
G-|-7-7-7-7-7-7-7--------------------------------------------------|
D-|-7-7-7-7-7-7-7-8-8-8-8-8-8-8-10-10-10-10-10-10-10-7-7-7-7-7-7-7-|
A-|-5-5-5-5-5-5-5-8-8-8-8-8-8-8-10-10-10-10-10-10-10-7-7-7-7-7-7-7-|
E-|---------------6-6-6-6-6-6-6--8--8--8--8--8--8--8-5-5-5-5-5-5-5-|

Refrain:

La guitar 1 et 2

(2x)
e-|----------------------------------|
B-|----------------------------------|
G-|--7--7--------------------------7-|
D-|--7--7--8--8--10-10--7--7-------7-|
A-|--5--5--8--8--10-10--7--7-------5-|
E-|--------6--6---8--8--5--5---------|

Ensuite la guitar 1 fait:

e-|-----------------------------------------------------------|
B-|-----------------------------------------------------------|
G-|-7-7-7-7-7-7-7-7-7-7-7-7-7-13131313131313-1212121212121212-|
D-|-7-7-7-7-7-7-7-7-7-7-7-7-7-13131313131313-1212121212121212-|
A-|-5-5-5-5-5-5-5-5-5-5-5-5-5-11111111111111-1010101010101010-|
E-|-----------------------------------------------------------|("muter")

Solo:

Guit 1:
(2x)             1                               2

e-|-----------------------------|------------------------------------|
B-|-----------------------------|------------------------------------|
G-|-7-7-7-7-7-7-7---------------|------------------------------------|
D-|-7-7-7-7-7-7-7-8-8-8-8-8-8-8-|-10-10-10-10-10-10-10-7-7-7-7-7-7-7-|
A-|-5-5-5-5-5-5-5-8-8-8-8-8-8-8-|-10-10-10-10-10-10-10-7-7-7-7-7-7-7-|
E-|---------------6-6-6-6-6-6-6-|--8--8--8--8--8--8--8-5-5-5-5-5-5-5-|

(1x)                                                                      
  solo           1                                   2
e-|--------------10-----------------10-|-101410141014101410141014b-|
B-|-10-9-10--9-10--10-99-1010-14-10----|---------------------------|
G-|------------------------------------|---------------------------|
D-|------------------------------------|---------------------------|
A-|------------------------------------|---------------------------|
E-|------------------------------------|---------------------------|
                                                   
Guit 1 et 2
e-|------------------|
B-|------------------|
G-|--7--7-7----------|
D-|--7--7-7--8-10-12-|
A-|--5--5-5--8-10-12-|
E-|----------6--8-10-|

et

(2x)        
e-|-------------------------------------------------------------------|
B-|-------------------------------------------------------------------|
G-|-7-7-7-7-7-7-7-----------------------------------------------------|
D-|-7-7-7-7-7-7-7-8-8-8-8-8-8-8-10-10-10-10-10-10-10-7-7-7-7-7-7-7--7-|
A-|-5-5-5-5-5-5-5-8-8-8-8-8-8-8-10-10-10-10-10-10-10-7-7-7-7-7-7-7--7-|
E-|---------------6-6-6-6-6-6-6--8--8--8--8--8--8--8-5-5-5-5-5-5-5--5-|


La toune est super le fune a jouer a dux guit mais suiver les barres
De chiffres et ecouter bien la toune pour les temps exacte.






Fin
Pour des question e-mailer moi





Comments


Popular Vulgaires Machins tabs & chords
La Ballade Des Egoistes Bass Tabs
Je Chante Pour Les Sourds Chords
Les Gens De L'occident Chords
A Tabs
Chanson A Vendre Tabs
Cocainomane Tabs
Dieu Se Pique Tabs
Fausse Route Tabs
La Chasse Est Ouverte Tabs
Pesticide Tabs


Song lyrics



↑ Back to top | Tablatures and chords are parodies/interpretations of the original songs. You may use it for private study, scholarship, research or language learning purposes only
© 2014 AZChords.com Contact us | Privacy policy | DMCA | Add/correct tabs | Request tabs | Top 50 tabs