» » »

Le Ciel Est Vide Tabs (ver.1)

Artists:  A B C D E F G H I J K L M N O P Q R S T U V W X Y Z # 

Le Ciel Est Vide Tabs (ver.1)

Vulgaires Machins
Rating:
0/5 (0 votes)

Hard to play? Try these video lessons and learn fast.
                intro
e-|-------------------------------------------------------|
B-|-------------------------------------------------------|
G-|----------------------------------------------------7b-|
D-|-----------7-----------------6-4-6-7-x4--7777777-------|
A-|--------4-5-5-4-4-4-4-4-4-4-9-7----------7777777-------|
E-|-5-5-5-5---------------------------------5555555-------|

  Couplet(x2)
e-|---------------------------------|
B-|---------------------------------|
G-|---------------------------------|
D-|-7777777777777777-5-5-5-2-2-2----|
A-|-7777777777777777-5-5-5-2-2-2----|
E-|-5555555555555555-3-3-3-0-0-0----|
   |-------pm-------|

e-|-------------------------------------------------------|
B-|-------------------------------------------------------|
G-|-------------------------------------------------------|
D-|-----------7-----------------6-4-6-7-x2--7777777777777-|
A-|--------4-5-5-4-4-4-4-4-4-4-9-7----------7777777777777-|
E-|-5-5-5-5---------------------------------5555555555555-|

  Couplet(x2)
e-|---------------------------------|
B-|---------------------------------|
G-|---------------------------------|
D-|-7777777777777777-5-5-5-2-2-2----|
A-|-7777777777777777-5-5-5-2-2-2----|
E-|-5555555555555555-3-3-3-0-0-0----|
   |-------pm-------|

  verse
e-|------------------------------------------------------|
B-|------------------------------------------------------|
G-|-14----13----14----11----13----0-13----0-13----14-----|
D-|-14(x7)13(x7)14(x7)11(x7)13(x7)0-13(x7)0-13(x7)14(x7)-|
A-|-12----11----12-----9----11----0-11----0-11----12-----|
E-|------------------------------------------------------|


  Brige(x4)
e-|---------------------------------------|
B-|---------------------------------------|
G-|----------9-99999-97-77777-79-99999-9--|
D-|-7-77777-79-99999-97-77777-79-99999-9--|
A-|-7-77777-77-77777-75-55555-57-77777-7--|
E-|-5-55555-5-----------------------------|
     |-p.m-|  |-p.m-|  |-p.m-|  |-p.m-|

  Couplet
e-|-----------------------------------|
B-|-----------------------------------|
G-|-----------------------------------|
D-|-77777-77-777--5-5-5-2-2-2x3-77777-|
A-|-77777-77-777--5-5-5-2-2-2---77777-|
E-|-55555-55-555--3-3-3-0-0-0---55555-|
   

e-|--------------------------|
B-|--------------------------|
G-|--------------------------|
D-|----------------6-4-6-7---|
A-|-4-4-4-4-4-4-4-9-7--------|
E-|--------------------------|

  intro
e-|----------------------------------------|
B-|----------------------------------------|
G-|----------------------------------------|
D-|-----------7-----------------6-4-6-7-x1-|
A-|--------4-5-5-4-4-4-4-4-4-4-9-7---------|
E-|-5-5-5-5--------------------------------|

   intro
e-|----------------------------------------|
B-|-----------8------------------7-5-7-8-x2|
G-|--------6-7-7-6-6-6-6-6-6-6-11-9--------|
D-|-7-7-7-7--------------------------------|
A-|----------------------------------------|
E-|----------------------------------------|

Outro
e-|--------------------|
B-|--------------------|
G-|--------------------|
D-|-77777-77-7777~~~~~-|
A-|-77777-77-7777~~~~~-|
E-|-55555-55-5555~~~~~-|



Fin soyer vulgaires...



Pour des questions e-mailer moi
            
Hard to play? Try these video lessons and learn fast. | Correct




comments powered by Disqus
↑ Back to top | Tablatures and chords are parodies/interpretations of the original songs. You may use it for private study, scholarship, research or language learning purposes only