>
 >
La Rue DéRagon

La Rue DéRagon Guitar Tabs

Vulgaires Machins - La Rue DéRagon chords, tabs, tablatures, lyrics

Guitar lessons | Add/correct | Request | Top 50 tabs Artists:  A B C D E F G H I J K L M N O P Q R S T U V W X Y Z 0-9

La Rue DéRagon Guitar Tabs – Vulgaires Machins

CD, Sheet music, Poster

Do you like La Rue DéRagon? Share with your friends now
Tabs
je l`ai faite avec le plus de détail possible si vous suiver bien les instructions vous n`aurai pas de probleme et écouter la toune attentivement
et vous comprendrez les instructions.

intro(x3)clean(cette intro est en vas et vien)
e-|------------------------------|
B-|------------------------------|
G-|--7------------9------12------|
D-|--7(x12)-9-----9(x12)-12(x12)-|
A-|--5------9(x12)7------10------|
E-|---------7--------------------| 
Sur la rue déragon y`a un trotoire sur  
Chaque bord de la rue.C`est prévu c`est
Pour les piétons,pour que tu puisse te 
Rendre jusqu`a ma maison


Couplet(x4)distortion
e-|--------------------------|
B-|--------------------------|
G-|--7----------9-----12-----|
D-|--7(x8)-9----9(x8)-12(x8)-|
A-|--5-----9(x8)7-----10-----|
E-|--------7-----------------|
 En t`en venant si tu traverse l`autre
 Bort tu va te faire frappé par un char
 Ou par un fou qui s`en irait chez nous 
 Juste pour me dire qu`il etait trop souel
 Pi qu`il s`en fous que tu soit mord. y`en 
 Des malades sur la rue des ragons. Y`en a
 Des malades
   

Clean        distortion
e-|------------|--------------------|
B-|------------|--------------------|
G-|-7~-----11~-|-1212121212121212---|
D-|-7~-----11~-|-1212121212121212---|
A-|-5~------9~-|-1010101010101010---|
E-|------------|--------------------|
  Y`en a tu des malaaaaaaaaaaades

 

 Verse(x1)distortion

e-|-------------------------------------------|
B-|-------------------------------------------|
G-|------------------------------------12-----|
D-|------------------------------------10(x8)-|
A-|--5--5-5--5-5-5--9---9--9---9--9--9-10-----|
E-|-------------------------------------------|

  






Parti 1                             parti 2

e-|-----------------------------------|-------|
B-|-----------------------------------|-------|
G-|--7--7-7--7-7-7-11--11-11--11-11-11|-12----|la partie 1 est fait par
D-|--7--7-7--7-7-7-11--11-11--11-11-11|-12(x8)|la guit 1 seulement et
A-|--5--5-5--5-5-5--9---9--9---9--9—-9|-10----|la parti 2 est fait par 
E-|-----------------------------------|-------|la guit 1 et 2

(solo de bass)


  Brige(x4)
e-|-------------------------------------------|
B-|-------------------------------------------|
G-|--7--7-7--7-7-7-11--11-11--11-11-11-12-----|
D-|--7--7-7--7-7-7-11--11-11--11-11-11-12(x8)-|
A-|--5--5-5--5-5-5--9---9--9---9--9--9-10-----|
E-|-------------------------------------------|

Couplet(x2)
e-|-------------------------|
B-|-------------------------|
G-|--7----------9----12-----|
D-|--7(x8)-9----9(x8)12(x8)-|
A-|--5-----9(x8)7----10-----|
E-|--------7----------------|
 Sur la rue déragon y`a un trotoire sur 
 Chaque bord d`la rue c`est prévue c`est
 Pour les piétons pour que tu puisse te 
 Rendre jusqu`a ma maison

  Brige(x2)il font 1 fois sans les paroles    (distortion)(clean)
e-|-------------------------------------------|----------|--------|
B-|-------------------------------------------|----------|--------|
G-|--7--7-7--7-7-7-11--11-11--11-11-11-12-----|-7-11-12--|-7~~----|
D-|--7--7-7--7-7-7-11--11-11--11-11-11-12(x8)-|-7~11~12~-|-7~~----|
A-|--5--5-5--5-5-5--9---9--9---9--9--9-10-----|-5--9-10--|-5~~----|
E-|-------------------------------------------|----------|--------|
Sur la rue déragonnnnnnnnnnnnn


Fin
Pour des question e-mailer moi 





Comments


Popular Vulgaires Machins tabs & chords
Cocainomane Tabs
Compter Les Corps Tabs
Dieu Se Pique Tabs
Dieu Se Pique 2 Tabs
Pesticide Tabs
Pistache Tabs
Puits Sans Fond Tabs
Triple Meurtre Et Suicide Rate Tabs
Puit Sans Fond Ukulele
Triple Meutre Et Suicide Rate Ukulele


Song lyrics



↑ Back to top | Tablatures and chords are parodies/interpretations of the original songs. You may use it for private study, scholarship, research or language learning purposes only
© 2014 AZChords.com Contact us | Privacy policy | DMCA | Add/correct tabs | Request tabs | Top 50 tabs